Korn - Mr Rogers tab

Band: KoRn
Song: Mr. Rogers
Tabber: We_Wont_Die

Tuning: ADGCFAD

Riff 1|-----------------------------------||-----------------------------------||-----------------------------------||-----------------------------------||-----------------------------------||------7-----7---7-----7-----7---8--||--0-0---0-0---0---0-0---0-0---0----|
|-----------------------------------||-----------------------------------||-----------------------------------||-----------------------------------||-----------------------------------||------8-----8---8-----8-----8---7--||--0-0---0-0---0---0-0---0-0---0----|
|-----------------------------------||-----------------------------------||-----------------------------------||-----------------------------------||-----------------------------------||------7-----7---7-----7-----7---8--||--0-0---0-0---0---0-0---0-0---0----|
|---------------------------------||---------------------------------||---------------------------------||---------------------------------||---------------------------------||------8-----8---8-------------8--||--0-0---0-0---0---0-0-1-1-1-0----|
|-----------------------------------||-----------------------------------||-----------------------------------||-----------------------------------||-----------------------------------||------7-----7---7-----7-----7---8--||--0-0---0-0---0---0-0---0-0---0----|
|---------------------------------||---------------------------------||---------------------------------||---------------------------------||---------------------------------||------8-----8---8-------------8--||--0-0---0-0---0---0-0-1-1-1-0----|
|-----------------------------------||-----------------------------------||-----------------------------------||-----------------------------------||-----------------------------------||------7-----7---7-----7-----7---8--||--0-0---0-0---0---0-0---0-0---0----|
|---------------------------------||---------------------------------||---------------------------------||---------------------------------||---------------------------------||------8-----8---8-------------8--||--0-0---0-0---0---0-0-1-1-1-0----|
|-----------------------------------||-----------------------------------||-----------------------------------||-----------------------------------||-----------------------------------||------7-----7---7-----7-----7---8--||--0-0---0-0---0---0-0---0-0---0----|
|-------------------------------||-------------------------------||-------------------------------||-------------------------------||-------------------------------||------8-----8---8--------------||--0-0---0-0---0---0-0---1---1--|
Riff 2|-------------------------------------||-------------------------------------||-------------------------------------||----------14\13--10\9----------------||-----------x--x---x-x-------7/8-8-8--||----------12\11---8\7-------x-x-x-x--||--0-0-0-0-------0-----0-0-0-5/6-6-6--|
|-------------------------------------||-------------------------------------||-------------------------------------||----------14\13--10\9----------------||-----------x--x---x-x-------7/8-8-8--||----------12\11---8\7-------x-x-x-x--||--0-0-0-0-------0-----0-0-0-5/6-6-6--|
Riff 3|-----||-----||-----||-----| Hold for a long long time|--8--||--9--||-----|
Riff 4|-----------------------------------------------------------||-----------------------7---------6----------------6p0------||--4-----------------------------------------------------4--||-----------------------------------------------------------||-----------------------------------------------------------||-----------------------------------------------------------||-----------------------------------------------------------|
Riff 5|------------------------------------------------------------------||------------------------------------------------------------------||------------------------------------------------------------------||------------------------------------------------------------------||------------------------------------------------------------------||--7-7-7-7----7-7-7-7----------------------------------------------||------------------------7-7-7-7----6-6-6-6----0-0-6-6----6-6-0-0--|
Riff 6|-----||-------------------------------||-----||-------------------------------||--4--||-------------------------------||-----||-------------------------------||-----||-------------------------------||-----||--3------------3------------9--||-----||--1p0-0-0-0----1p0-0-0-0----7--|
|---------------------------------||------0----------0---------------||------0----------0---------------||---------------------------------||---------------------------------||--8-8---8----8-8---8----8--------||--6-6---6----6-6---6----6-0-0-0--|
Riff 7|--12-------------------11--------------------------11--||----------------10-------------------------------------||--------------------------------------4----------------||-------------------------------------------------------||-------------------------------------------------------||-------------------------------------------------------||-------------------------------------------------------|
Riff 8|----------------------------------------------7--||---------------------7----------6----------------||--4----------------------------------------------||-------------------------------------------------||-------------------------------------------------||-------------------------------------------------||-------------------------------------------------|
|--------------------------------16--------------16------||------16------------------------------------------------||----------------------------------------------------16--||--------------------------------------------------------||--------------------------------------------------------||--16--------16--16----16--16------------16--16----------||--------------------------------------------------------|
|-----------------------------7------------||-----7--------6-------------------6-------||--4------------------------------------4--||------------------------------------------||------------------------------------------||------------------------------------------||------------------------------------------|
Riff 9|----------------------16----------16------||--16----------------------------------16--||------------------------------------------||------------------------------------------||------------------------------------------||------16--------16----------16------------||------------------------------------------|
|------16----------------16--------||------------------------------16--||----------------------------------||----------------------------------||----------------------------------||--16--------------16--------------||----------------------------------|
|------------------16------||--------------------------||--------------------------||--------------------------||--------------------------||--16--16--16--16------16--||--------------------------|
|--12--------------------------------11----------||--------------------10--------------------------||---------------------------------------------4--||------------------------------------------------||------------------------------------------------||------------------------------------------------||------------------------------------------------|
Riff 10|----------------------------------------------------------||----------------------------------------------------------||----------------------------------------------------------||----------------------------------------------------------||----------------------------------------------------------||--2-2----2---2-2----2-x-x-8---2-2----2---2-2-----2-x-x-8--||--0-0----0---0-0----0-x-x-6---0-0----0---0-0-----0-x-x-6--|
|--------------------------------------------------------------------------||--------------------------------------------------------------------------||--------------------------------------------------------------------------||--------------------------------------------------------------------------||--------------------------------------------------------------------------||--------------------------------------------------------------------------||--1p0-0-0-0----1p0-0-0-0-0-1p0-0-0-0-1p0-0-0-0----1p0-0-0-0--0-1p0-0-0-0--|
Outro|-----||-----||-----||-----||-----||-----||--0--|
Key: x - mute p - pull off / - slide down \- slide up
Tap to rate this tab
 
# A B C D E F G H I J K L M N O P Q R S T U V W X Y Z