Korn - Falling Away From Me tab

tunning               Falling Away From Me
7 - A                                          Played on a 7string guitar
6 - D                                          Ibanez K-7
5 - G
4 - C
3 - F
2 - A
1 - D

IntroClean Tone-------15---14----------------14------|--17--------------15------------------|------------------------16------------|--------------------------------------|--------------------------------------|--------------------------------------|--------------------------------------|
--------15---14----------------14------|--17--------------15----------------14-|------------------------16-------------|---------------------------------------|---------------------------------------|---------------------------------------|---------------------------------------|
-------15---14----------------14------|--17--------------15------------------|------------------------16------------|--------------------------------------|--------------------------------------|--------------------------------------|--------------------------------------|
--------15---14----------------14------|--17--------------15----------------14-|------------------------16-------------|---------------------------------------|---------------------------------------|---------------------------------------|---------------------------------------|
With Distortion---------------------------------------|---------------------------------------|---------------------------------------|---3---------3------3------------------|---3---------3------3------------------|---1---------1------1------------------|-0----0---0------0------0--------------|
---------------------------------------|---------------------------------------|---------------------------------------|---3---------3------3------------------|---3---------3------3------------------|---1---------1------1------------------|-0----0---0------0------0--------------|
---------------------------------------|---------------------------------------|---------------------------------------|---3---------3------3------------------|---3---------3------3------------------|---1---------1------1------------------|-0----0---0------0------0--------------|
---------------------------------------|---------------------------------------|---------------------------------------|---3---------3------3------------------|---3---------3------3------------------|---1---------1------1------------------|-0----0---0------0------0--------------|
VerseClean Tone-------15---14----------------14------|--17--------------15------------------|------------------------16------------|--------------------------------------|--------------------------------------|--------------------------------------|--------------------------------------|
--------15---14----------------14------|--17--------------15----------------14-|------------------------16-------------|---------------------------------------|---------------------------------------|---------------------------------------|---------------------------------------|
-------15---14----------------14------|--17--------------15------------------|------------------------16------------|--------------------------------------|--------------------------------------|--------------------------------------|--------------------------------------|
--------15---14----------------14------|--17--------------15----------------14-|------------------------16-------------|---------------------------------------|---------------------------------------|---------------------------------------|---------------------------------------|
With Distortion---------------------------------------|---------------------------------------|---------------------------------------|---3---------3------3------------------|---3---------3------3------------------|---1---------1------1------------------|-0----0---0------0------0--------------|
---------------------------------------|---------------------------------------|---------------------------------------|---3---------3------3------------------|---3---------3------3------------------|---1---------1------1------------------|-0----0---0------0------0--------------|
---------------------------------------|---------------------------------------|---------------------------------------|---3---------3------3------------------|---3---------3------3------------------|---1---------1------1------------------|-0----0---0------0------0--------------|
Clean Tone-------15---14----------------14------|--17--------------15------------------|------------------------16------------|--------------------------------------|--------------------------------------|--------------------------------------|--------------------------------------|
--------15---14----------------14------|--17--------------15----------------14-|------------------------16-------------|---------------------------------------|---------------------------------------|---------------------------------------|---------------------------------------|
-------15---14----------------14------|--17--------------15------------------|------------------------16------------|--------------------------------------|--------------------------------------|--------------------------------------|--------------------------------------|
--------15---14----------------14------|--17--------------15----------------14-|------------------------16-------------|---------------------------------------|---------------------------------------|---------------------------------------|---------------------------------------|
ChorusWith Distortion--------------------------------------|-^^^^^^--------^^^^^^-------^^^^^^^^--|-33333333333333333333333333333333333--|--------------------------------------|--------------------------------------|--------------------------------------|--------------------------------------|
--------------------------------------|-^^^^^^--------^^^^^^-------^^^^^^^^--|-33333333333333333333333333333333333--|--------------------------------------|--------------------------------------|--------------------------------------|--------------------------------------|
VerseClean Tone-------15---14----------------14------|--17--------------15------------------|------------------------16------------|--------------------------------------|--------------------------------------|--------------------------------------|--------------------------------------|
--------15---14----------------14------|--17--------------15----------------14-|------------------------16-------------|---------------------------------------|---------------------------------------|---------------------------------------|---------------------------------------|
-------15---14----------------14------|--17--------------15------------------|------------------------16------------|--------------------------------------|--------------------------------------|--------------------------------------|--------------------------------------|
--------15---14----------------14------|--17--------------15----------------14-|------------------------16-------------|---------------------------------------|---------------------------------------|---------------------------------------|---------------------------------------|
ChorusWith Distortion--------------------------------------|-^^^^^^--------^^^^^^-------^^^^^^^^--|-33333333333333333333333333333333333--|--------------------------------------|--------------------------------------|--------------------------------------|--------------------------------------|
--------------------------------------|-^^^^^^--------^^^^^^-------^^^^^^^^--|-33333333333333333333333333333333333--|--------------------------------------|--------------------------------------|--------------------------------------|--------------------------------------|
BridgeDistortion--------------------------------------|-^^^^^^--------^^^^^^-------^^^^^^^^--|-33333333333333333333333333333333333--|--------------------------------------|--------------------------------------|--------------------------------------|--------------------------------------|
--------------------------------------|-^^^^^^--------^^^^^^-------^^^^^^^^--|-33333333333333333333333333333333333--|--------------------------------------|--------------------------------------|--------------------------------------|--------------------------------------|
Clean-------15---14----------------14------|--17--------------15------------------|------------------------16------------|--------------------------------------|--------------------------------------|--------------------------------------|--------------------------------------|
--------15---14----------------14------|--17--------------15----------------14-|------------------------16-------------|---------------------------------------|---------------------------------------|---------------------------------------|---------------------------------------|
-------15---14----------------14------|--17--------------15------------------|------------------------16------------|--------------------------------------|--------------------------------------|--------------------------------------|--------------------------------------|
--------15---14----------------14------|--17--------------15----------------14-|------------------------16-------------|---------------------------------------|---------------------------------------|---------------------------------------|---------------------------------------|
Distortion---------------------------------------|---------------------------------------|---------------------------------------|---3---------3------3------------------|---3---------3------3------------------|---1---------1------1------------------|-0----0---0------0------0--------------|
---------------------------------------|---------------------------------------|---------------------------------------|---3---------3------3------------------|---3---------3------3------------------|---1---------1------1------------------|-0----0---0------0------0--------------|
---------------------------------------|---------------------------------------|---------------------------------------|---3---------3------3------------------|---3---------3------3------------------|---1---------1------1------------------|-0----0---0------0------0--------------|
---------------------------------------|---------------------------------------|---------------------------------------|---3---------3------3------------------|---3---------3------3------------------|---1---------1------1------------------|-0----0---0------0------0--------------|
ChorusDistortion--------------------------------------|-^^^^^^--------^^^^^^-------^^^^^^^^--|-33333333333333333333333333333333333--|--------------------------------------|--------------------------------------|--------------------------------------|--------------------------------------|
--------------------------------------|-^^^^^^--------^^^^^^-------^^^^^^^^--|-33333333333333333333333333333333333--|--------------------------------------|--------------------------------------|--------------------------------------|--------------------------------------|
--------------------------------------|-^^^^^^--------^^^^^^-------^^^^^^^^--|-33333333333333333333333333333333333--|--------------------------------------|--------------------------------------|--------------------------------------|--------------------------------------|
--------------------------------------|-^^^^^^--------^^^^^^-------^^^^^^^^--|-33333333333333333333333333333333333--|--------------------------------------|--------------------------------------|--------------------------------------|--------------------------------------|
Lyrics Hey, I'm feeling tired, My time has gone today You flirting with suicide, Sometimes thats ok Do what others say, I'm here standing alone Falling away from me, falling away from me Day, is here fading, that's when I'm insane I flirted with suicide, sometimes kill the pain I can't always say, "it's gonna be better tomorrow" falling away from me, falling away from me Beating me down, beating me beating me down, down, into the ground, screaming so sound beating me, beating me down, down, into the ground Falling away from me, its spinning round and round Falling away from me, its lost and cant be found falling away from me, its spinning round and round Falling away from me, Slow it down Beating me down, beating me beating me down, down, into the ground, screaming so sound beating me, beating me down, down, into the ground Trust in me then walk away So I pray Go Away It's falling away from me Life's falling away from me It's falling away from me Life's Falling away from me FUCK!!!! Beating me down, beating me beating me down, down, into the ground, screaming so sound beating me, beating me down, down, into the ground Beating me down, beating me beating me down, down, (falling away from me) into the ground, screaming so sound (falling away from me) beating me, beating me down, down (falling away from me) into the ground
Tap to rate this tab
 
# A B C D E F G H I J K L M N O P Q R S T U V W X Y Z