Kovenant - Hollow Earth tab

Artist:the Kovenant
Song: Hollow Earth

Tabbed by : eisblut and derz

Tuning:Standard

-------------------------------------------------|-------------------------------------------------|-------------------------------------------------|-7-9-999-10-7/9-99-9-999-10-7/9------------------|-5-7-777-8--5/7-77-7-777-8--5/7-222-22-2-22-2222-|--------------------------------000-00-0-00-0000-|X4 pm. .. ... ... .. . .. ....
Guitar1_---------------------------------|---------------------------------|---------------------------------|-7-9-999-10-7/9-99-9-999-10-7/9--|-5-7-777-8--5/7-77-7-777-8-5/7---|---------------------------------|X4
pm. .. ...
Guitar2_---------------------------------|-5-3-5-8-5-----------------------|---------------------------------|---------------------------------|---------------------------------|---------------------------------|X7
---------------------------------|-5-3-5-12-5----------------------|---------------------------------|---------------------------------|---------------------------------|---------------------------------|X1
------------------------------------------------------|------------------------------------------------------|------------------------------------------------------|-2-2-2-2-2-2-5-5-5-5-5-5------------------------------|-0-0-0-0-0-0-3-3-3-3-3-3------------------------5/7---|-------------------------00-3-00-6-00-5-00-3-00-------|X2 pm . . . .. .. .. .. ..
--------------------------------------------------------------------------|--------------------------------------------------------------------------|--------------------------------------------------------------------------|-2-2-2-2-2-2-5-5-5-5-5-5-9-9-9-9-9-9-7-7-7-7-7-7-2-2-2-2-2-2-5-5-5-7-7-7--|-0-0-0-0-0-0-3-3-3-3-3-3-7-7-7-7-7-7-5-5-5-5-5-5-0-0-0-0-0-0-3-3-3-5-5-5--|--------------------------------------------------------------------------| pm . . . . . . . . . . .
-----------------------------------------------------------|-----------------------------------------------------------|-----------------------------------------------------------|-----------------------------------------------------------|------------------------5/7-------------------------9/10---|-00-3-00-6-00-5-00-3-00-----00-6-00-10-00-9-00-6-00--------| .. .. .. .. .. .. .. .. .. ..
-------------------------------------------------|-------------------------------------------------|-------------------------------------------------|-7-9-999-10-7/9-99-9-99910-7/9-------------------|-5-7-777-8-5/7-77-7-777-8--5/7-222-22-2-22-2222--|-------------------------------000-00-0-00-0000--|X4 pm. .. ... ... .. . .. ....
---------------------------------|---------------------------------|---------------------------------|-7-9-999-10-7/9-99-9-999-10-7/9--|-5-7-777-8--5/7-77-7-777-8--5/7--|---------------------------------|X4 pm. .. ...
Guitar2_---------------------------------|-5-3-5-8-5-----------------------|---------------------------------|---------------------------------|---------------------------------|---------------------------------|X7
---------------------------------|-5-3-5-12-5----------------------|---------------------------------|---------------------------------|---------------------------------|---------------------------------|X1
------------------------------------------------------|------------------------------------------------------|------------------------------------------------------|-2-2-2-2-2-2-5-5-5-5-5-5------------------------------|-0-0-0-0-0-0-3-3-3-3-3-3------------------------5/7---|-------------------------00-3-00-6-00-5-00-3-00-------|X2 pm . . . .. .. .. .. ..
--------------------------------------------------------------------------|--------------------------------------------------------------------------|--------------------------------------------------------------------------|-2-2-2-2-2-2-5-5-5-5-5-5-9-9-9-9-9-9-7-7-7-7-7-7-2-2-2-2-2-2-5-5-5-7-7-7--|-0-0-0-0-0-0-3-3-3-3-3-3-7-7-7-7-7-7-5-5-5-5-5-5-0-0-0-0-0-0-3-3-3-5-5-5--|--------------------------------------------------------------------------| pm . . . . . . . . . . .
-----------------------------------------------------------|-----------------------------------------------------------|-----------------------------------------------------------|-----------------------------------------------------------|------------------------5/7-------------------------9/10---|-00-3-00-6-00-5-00-3-00-----00-6-00-10-00-9-00-6-00--------| .. .. .. .. .. .. .. .. .. ..
-----------------------------|-----------------------------|-----------------------------|-----------------------------|-3-3-3-3-2h3-X3-3-3-3-2h3----|-1-1-1-1--------1-1-1--------| pm .
-------------------|-------------------|-------------------|-------------0h2---|-22222-22222-------|-00000-00000-------|X4 pm... .....
-----------------------------|-----------------------------|-----------------------------|-----------------------------|-3-3-3-3-2h3-X3-3-3-3-2h3----|-1-1-1-1--------1-1-1--------| pm .
-------------------|-------------------|-------------------|-------------0h2---|-22222-22222-------|-00000-00000-------|X4 pm... .....
-----------------------------|-----------------------------|-----------------------------|-----------------------------|-3-3-3-3-2h3-X3-3-3-3-2h3----|-1-1-1-1--------1-1-1--------| pm .
-------------------|-------------------|-------------------|-------------0h2---|-22222-22222-------|-00000-00000-------|X4 pm... .....
-----------------------------|-----------------------------|-----------------------------|-----------------------------|-3-3-3-3-2h3-X3-3-3-3-2h3----|-1-1-1-1--------1-1-1--------| pm .
-------------------|-------------------|-------------------|-------------0h2---|-22222-22222-------|-00000-00000-------|X4 pm... .....
--------------------------------------------------------------------------|--------------------------------------------------------------------------|--------------------------------------------------------------------------|-2-2-2-2-2-2-5-5-5-5-5-5-9-9-9-9-9-9-7-7-7-7-7-7-2-2-2-2-2-2-5-5-5-7-7-7--|-0-0-0-0-0-0-3-3-3-3-3-3-7-7-7-7-7-7-5-5-5-5-5-5-0-0-0-0-0-0-3-3-3-5-5-5--|--------------------------------------------------------------------------|
------------------------------|------------------------------|------------------------------|------------------------------|------------------------5/7---|-00-3-00-6-00-5-00-3-00-------|X2
---------------------------------------------------|---------------------------------------------------|---------------------------------------------------|-2-2-2-2-2-2-5-5-5-5-5-5-9-9-9-9-9-9-7-7-7-7-7-7---|-0-0-0-0-0-0-3-3-3-3-3-3-7-7-7-7-7-7-5-5-5-5-5-5---|---------------------------------------------------|X2
---------------------------|---------------------------|---------------------------|-2-2-2-2-2-2-5-5-5-7-7-7---|-0-0-0-0-0-0-3-3-3-5-5-5---|---------------------------|X2
--------------------------------------------------------------|--------------------------------------------------------------|--------------------------------------------------------------|----------------------------------------------------------2---|------------------------5/7-------------------------9/10--2---|-00-3-00-6-00-5-00-3-00-----00-6-00-10-00-9-00-6-00-------0---|
Tap to rate this tab
 
# A B C D E F G H I J K L M N O P Q R S T U V W X Y Z