Kraftwerk - Pocket Calculator tab

POCKET CALCULATOR
 By: UxFxTx


Sec: 18

4x|----------------------------------------------||----------------------------------------------||---15--15----15--15----15--15----15----15-----||----------15--------15--------15----15--------||----------------------------------------------||----------------------------------------------|
Sec: 32
|--------13-13----------11-11-10----------13----13--||--11-13-------13-11-13----------13-11-13----11-----||---------------------------------------------------||---------------------------------------------------||---------------------------------------------------||---------------------------------------------------|
|-----------11-11-10--||--13-11-13-----------||---------------------||---------------------||---------------------||---------------------|
|--------13----13----------11-11-10----------13----13--||--11-13----11----13-11-13----------13-11-13----11-----||------------------------------------------------------||------------------------------------------------------||------------------------------------------------------||------------------------------------------------------|
|-----------11-11-10--||--13-11-13-----------||---------------------||---------------------||---------------------||---------------------|
Sec: 473x|----------------------------------------------||----------------------------------------------||---15--15----15--15----15--15----15----15-----||----------15--------15--------15----15--------||----------------------------------------------||----------------------------------------------|
|-------------------------------------------||-------------------------------------------||---15-15----15-15----15-15----15-----------||---------15-------15-------15--------------||-------------------------------------------||-------------------------------------------|
3x|----------------------------------------------||----------------------------------------------||---15--15----15--15----15--15----15----15-----||----------15--------15--------15----15--------||----------------------------------------------||----------------------------------------------|
|-------------------------------------------||-------------------------------------------||---15-15----15-15----15-15----15-----------||---------15-------15-------15--------------||-------------------------------------------||-------------------------------------------|
3x|----------------------------------------------||----------------------------------------------||---15--15----15--15----15--15----15----15-----||----------15--------15--------15----15--------||----------------------------------------------||----------------------------------------------|
|-------------------------------------------||-------------------------------------------||---15-15----15-15----15-15----15-----------||---------15-------15-------15--------------||-------------------------------------------||-------------------------------------------|
3x|----------------------------------------------||----------------------------------------------||---15--15----15--15----15--15----15----15-----||----------15--------15--------15----15--------||----------------------------------------------||----------------------------------------------|
|-------------------------------------------||-------------------------------------------||---15-15----15-15----15-15----15-----------||---------15-------15-------15--------------||-------------------------------------------||-------------------------------------------|
3x|----------------------------------------------||----------------------------------------------||---15--15----15--15----15--15----15----15-----||----------15--------15--------15----15--------||----------------------------------------------||----------------------------------------------|
|-------------------------------------------||-------------------------------------------||---15-15----15-15----15-15----15-----------||---------15-------15-------15--------------||-------------------------------------------||-------------------------------------------|
3x|----------------------------------------------||----------------------------------------------||---15--15----15--15----15--15----15----15-----||----------15--------15--------15----15--------||----------------------------------------------||----------------------------------------------|
|-------------------------------------------||-------------------------------------------||---15-15----15-15--------------------------||---------15-------15-----------------------||-------------------------------------------||-------------------------------------------|
^^^^^^ here is 2:00 then the other thing can’t be done…
3:054x|----------------------------------------------||----------------------------------------------||---15--15----15--15----15--15----15----15-----||----------15--------15--------15----15--------||----------------------------------------------||----------------------------------------------|
3:20|--------13-13----------11-11-10----------13----13--||--11-13-------13-11-13----------13-11-13----11-----||---------------------------------------------------||---------------------------------------------------||---------------------------------------------------||---------------------------------------------------|
|-----------11-11-10--||--13-11-13-----------||---------------------||---------------------||---------------------||---------------------|
|--------13----13----------11-11-10----------13----13--||--11-13----11----13-11-13----------13-11-13----11-----||------------------------------------------------------||------------------------------------------------------||------------------------------------------------------||------------------------------------------------------|
|-----------11-11-10--||--13-11-13-----------||---------------------||---------------------||---------------------||---------------------|
3:34
3x|----------------------------------------------||----------------------------------------------||---15--15----15--15----15--15----15----15-----||----------15--------15--------15----15--------||----------------------------------------------||----------------------------------------------|
|-------------------------------------------||-------------------------------------------||---15-15----15-15----15-15----15-----------||---------15-------15-------15--------------||-------------------------------------------||-------------------------------------------|
3x|----------------------------------------------||----------------------------------------------||---15--15----15--15----15--15----15----15-----||----------15--------15--------15----15--------||----------------------------------------------||----------------------------------------------|
|-------------------------------------------||-------------------------------------------||---15-15----15-15----15-15----15-----------||---------15-------15-------15--------------||-------------------------------------------||-------------------------------------------|
3x|----------------------------------------------||----------------------------------------------||---15--15----15--15----15--15----15----15-----||----------15--------15--------15----15--------||----------------------------------------------||----------------------------------------------|
Tap to rate this tab
 
# A B C D E F G H I J K L M N O P Q R S T U V W X Y Z