Kreator - Impossible Brutality tab

Band-Kreator
Song-Impossible Brutality
Album-Enemy Of God

I noticed there wasn't any text tabs of this kick ass song and I know there are people
there like me who can't get guitar pro or power tab so here it is in a text tab. To make
sound good you have to tune down 1 full step and you should have two guitarist so one 
play the lead and one can play the rhythm-You could have 3 but it's really not needed.

ENJOY!

Rhythm Guitar-Mille Petrozza

(I didn't put the palm mutes in but they are pretty obvious in the song.)


D||-------------------|------------------|------------------|------------------|A||-------------------|------------------|------------------|------------------|F||--9----------------|------------------|------------------|------------------|C||--9----------------|------------------|------------------|------------------|G||--7----------------|------------------|------------------|------------------|D||-------------------|------------------|------------------|------------------|
-------------------|-------------------|-------------------|-------------------|-------------------|-------------------|-------------------|-------------------|-------------------|--2----------------|--3----------------|--2----------------|--2----------------|--3----------------|--2----------------|--0----------------|--1----------------|--0----------------|
--------------------|-------------------|-------------------|--------------------|-------------------|-------------------|--------------------|-------------------|-------------------|--5--------3--------|--2----------------|--3----------------|--5--------3--------|--2----------------|--3----------------|--3--------1--------|--0----------------|--1----------------|
-------------------|--------------------|-------------------|--------------------|-------------------|--------------------|--2----------------|--5--------3--------|--2----------------|--5--------3--------|--0----------------|--3--------1--------|
--------------------------------------------------------|--------------------------------------------------------|--------------------------------------------------------|-----------------------------------------------5--8-----|--2--------------------------------------------------6--|--0--0-0-0--0-0-0--0-0-0--0-0-0--0-0-0--0-0-0-----------|
-------------------------------------------------------|-------------------------------------------------------|-------------------------------------------------------|--9/-------------------------------------------7----7--|--7/-------------------------------------------5----5--|-----0-0-0--0-0-0--0-0-0--0-0-0--0-0-0--0-0-0----------|
------------------------------------------------------|------------------------------------------------------|------------------------------------------------------|--5------6---------6--5--3--5------6---------5--8-----|--3--3-3-3--3-3-3--3--3--3--3--3-3-3--3-3-3--------6--|------------------------------------------------------|
----------------------------------------------------------|----------------------------------------------------------|----------------------------------------------------------|--9/------------------------------------------------------|--7/-2-2-2--2-2-2--2-2-2--2-2-8--8-8-8--8-8-7--7-7-5--2-3-|-----0-0-0--0-0-0--0-0-0--0-0-6--6-6-6--6-6-5--5-5-3--0-1-|
---------------------------------------------------------|---------------------------------------------------------|---------------------------------------------------------|------------------------------------------------5--8-----|--2--2-2-5--2-2-2-2-2-2-4--2-2-2--2-2-5--4/5-8--------6--|--0--0-0-3--0-0-0-0-0-0-2--0-0-0--0-0-3--2/3-6-----------|
---------------------------------------------------------|---------------------------------------------------------|---------------------------------------------------------|------------------------------------------------3--0-----|--2--2-2-5--2-2-2-2-2-2-4--2-2-2--2-2-5--4/5-3-----------|--0--0-0-3--0-0-0-0-0-0-2--0-0-0--0-0-3--2/3-1--------1--|
---------------------------------------------------------|---------------------------------------------------------|---------------------------------------------------------|------------------------------------------------5--8-----|--2--2-2-5--2-2-2-2-2-2-4--2-2-2--2-2-5--4/5-8--------6--|--0--0-0-3--0-0-0-0-0-0-2--0-0-0--0-0-3--2/3-6-----------|
----------------------------------------------------------|-------------------|----------------------------------------------------------|-------------------|----------------------------------------------------------|-------------------|----------------------------------------------------3-----|--2----------------|--2--2-2-5--2-2-2-2-2-2-4--2-2-2--2-2-5--2-2-2--2-2-1-5---|--2----------------|--0--0-0-3--0-0-0-0-0-0-2--0-0-0--0-0-3--0-0-0--0-0---3---|--0----------------|
-------------------|-------------------|--------------------|-------------------|-------------------|--------------------|-------------------|-------------------|--------------------|--3----------------|--2----------------|--5--------3--------|--3----------------|--2----------------|--5--------3--------|--1----------------|--0----------------|--3--------1--------|
--------------------------------------------------------|--------------------------------------------------------|--------------------------------------------------------|-----------------------------------------------5--8-----|--2--------------------------------------------------6--|--0--0-0-0--0-0-0--0-0-0--0-0-0--0-0-0--0-0-0-----------|
-------------------------------------------------------|-------------------------------------------------------|-------------------------------------------------------|--9/-------------------------------------------7----7--|--7/-------------------------------------------5----5--|-----0-0-0--0-0-0--0-0-0--0-0-0--0-0-0--0-0-0----------|
------------------------------------------------------|------------------------------------------------------|------------------------------------------------------|--5------6---------6--5--3--5------6---------5--8-----|--3--3-3-3--3-3-3--3--3--3--3--3-3-3--3-3-3--------6--|------------------------------------------------------|
----------------------------------------------------------|----------------------------------------------------------|----------------------------------------------------------|--9/------------------------------------------------------|--7/-2-2-2--2-2-2--2-2-2--2-2-8--8-8-8--8-8-7--7-7-5--2-3-|-----0-0-0--0-0-0--0-0-0--0-0-6--6-6-6--6-6-5--5-5-3--0-1-|
---------------------------------------------------------|---------------------------------------------------------|---------------------------------------------------------|------------------------------------------------5--8-----|--2--2-2-5--2-2-2-2-2-2-4--2-2-2--2-2-5--4/5-8--------6--|--0--0-0-3--0-0-0-0-0-0-2--0-0-0--0-0-3--2/3-6-----------|
---------------------------------------------------------|---------------------------------------------------------|---------------------------------------------------------|------------------------------------------------3--0-----|--2--2-2-5--2-2-2-2-2-2-4--2-2-2--2-2-5--4/5-3-----------|--0--0-0-3--0-0-0-0-0-0-2--0-0-0--0-0-3--2/3-1--------1--|
---------------------------------------------------------|---------------------------------------------------------|---------------------------------------------------------|------------------------------------------------5--8-----|--2--2-2-5--2-2-2-2-2-2-4--2-2-2--2-2-5--4/5-8--------6--|--0--0-0-3--0-0-0-0-0-0-2--0-0-0--0-0-3--2/3-6-----------|
----------------------------------------------------------|----------------------------------------------------------|----------------------------------------------------------|----------------------------------------------------3-----|--2--2-2-5--2-2-2-2-2-2-4--2-2-2--2-2-5--2-2-2--2-2-1-5---|--0--0-0-3--0-0-0-0-0-0-2--0-0-0--0-0-3--0-0-0--0-0---3---|
----------------------------------------|----------------------------------------|----------------------------------------|----------------------------------------|--2----------------------2--8--7--5-3---|--0----------------------0--6--5--3-1---|
----------------------------------------|----------------------------------------|----------------------------------------|----------------------------------------|--5----------------------2--8--7--5-3---|--3----------------------0--6--5--3-1---|
----------------------------------------|----------------------------------------|----------------------------------------|----------------------------------------|--2----------------------2--8--7--5-3---|--0----------------------0--6--5--3-1---|
----------------------------------------|----------------------------------------|----------------------------------------|----------------------------------------|--5----------------------2--8--7--5-3---|--3----------------------0--6--5--3-1---|
--------------------------------------------------------------------------------|--------------------------------------------------------------------------------|--------------------------------------------------------------------------------|--------------------------------------------------------------------------------|------------------------------------------------------------------------------4-|--0-0-0-0-0-0-2--0-0-0-0-0-0-3--0-0-0-6-5-0-0-0-0-0-0-2--0-0-0-0-0-0-3--0-0-0---|
--------------------------------------------------------------------------------|--------------------------------------------------------------------------------|--------------------------------------------------------------------------------|--------------------------------------------------------------------------------|------------------------------------------------------------------------------4-|--0-0-0-0-0-0-2--0-0-0-0-0-0-3--0-0-0-6-5-0-0-0-0-0-0-2--0-0-0-0-0-0-3--0-0-0---|
--------------------------------------------------------------------------------|--------------------------------------------------------------------------------|--------------------------------------------------------------------------------|--5-------5-------4-5-----------------------5-------5-------5---4-------4-------|----------------------7-----------------------3-3-3---3-3-3---3---3-3-3---3-3-3-|----0-0-0---0-0-0-------0-0-0-0-0-0-0-0-0-0-------------------------------------|
--------------------------------------------------------------------------------|--------------------------------------------------------------------------------|----------------------------------------------------------------2-------2-------|--5-------5-------4-5-----------------------5-------5-------5-------------------|----------------------7-----------------------3-3-3---3-3-3---3---3-3-3---3-3-3-|----0-0-0---0-0-0-------0-0-0-0-0-0-0-0-0-0-------------------------------------|
--------------------------------------------------------------------------------|--------------------------------------------------------------------------------|--------------------------------------------------------------------------------|--5-------5-------4-5-----------------------5-------5-------5---4-------4-------|----------------------7-----------------------3-3-3---3-3-3---3---3-3-3---3-3-3-|----0-0-0---0-0-0-------0-0-0-0-0-0-0-0-0-0-------------------------------------|
--------------------------------------------------------------------------------|--------------------------------------------------------------------------------|----------------------------------------------------------------2-------2-------|--5-------5-------4-5-----------------------5-------5-------5-------------------|----------------------7-----------------------3-3-3---3-3-3---3---3-3-3---3-3-3-|----0-0-0---0-0-0-------0-0-0-0-0-0-0-0-0-0-------------------------------------|
------------------------------------------------------------------|------------------------------------------------------------------|------------------------------------------------------------------|------------------------------------------------------------------|--2-2-2-2-2-2-2-2-2-2-2-0-0-2-2-3-3-3-3-3-3-3-3-3-3-3-3-3-3-3-3-3-|------------------------------------------------------------------|
------------------------------------------------------------------|------------------------------------------------------------------|------------------------------------------------------------------|------------------------------------------------------------------|--2-2-2-2-2-2-2-2-2-2-2-0-0-2-2-5-5-5-5-5-5-5-5-0-0-0-0-0-0-0-0-0-|------------------------------------------------------------------|
------------------------------------------------------------------|------------------------------------------------------------------|------------------------------------------------------------------|------------------------------------------------------------------|--2-2-2-2-2-2-2-2-2-2-2-0-0-2-2-3-3-3-3-3-3-3-3-3-3-3-3-3-3-3-3-3-|------------------------------------------------------------------|
------------------------------------------------------------------|------------------------------------------------------------------|------------------------------------------------------------------|------------------------------------------------------------------|--2-2-2-2-2-2-2-2-2-2-2-0-0-2-2-3-3-3-3-3-3-3-3-------------------|------------------------------------------------3-3-3-3-3-3-3-3-3-|
------------------------------------------------------------------|------------------------------------------------------------------|------------------------------------------------------------------|------------------------------------------------------------------|--2-2-2-2-2-2-2-2-2-2-2-0-0-2-2-3-3-3-3-3-3-3-3-3-3-3-3-3-3-3-3-3-|------------------------------------------------------------------|
------------------------------------------------------------------|------------------------------------------------------------------|------------------------------------------------------------------|------------------------------------------------------------------|--2-2-2-2-2-2-2-2-2-2-2-0-0-2-2-5-5-5-5-5-5-5-5-0-0-0-0-0-0-0-0-0-|------------------------------------------------------------------|
------------------------------------------------------------------|------------------------------------------------------------------|------------------------------------------------------------------|------------------------------------------------------------------|--2-2-2-2-2-2-2-2-2-2-2-0-0-2-2-3-3-3-3-3-3-3-3-3-3-3-3-3-3-3-3-3-|------------------------------------------------------------------|
----------------------------------------------------|----------------------------------------------------|----------------------------------------------------|--------------------------------------5-------------|--2-2-2-2-2-2-2-2-2-2-2-0-0-2-2-3-3-3-3---------5---|------------------------------------------3-3-3-3---|
-----------------------------|-----------------------------|-----------------------------|-----------------------------|--4------5----------2--4--2--|--4------5----------2--4--2--|--2------2----------2--2--2--|--2------2----------2--2--2--|-----------------------------|-----------------------------|-----0-0----0-0-0-0----------|-----0-0----0-0-0-0----------|
-----------------------------|-----------------------------|-----------------------------|-----------------------------|-----------------------------|-----------------------------|--4------5----------4--5--4--|--4------5----------5--4--5--|--3--3-3-3--3-3-3-3-3--3--3--|--5--5-5-5--5-5-5-5-5--5--5--|-----------------------------|-----------------------------|
-----------------------------|-----------------------------|-----------------------------|-----------------------------|--4------5----------2--4--2--|--4------5----------2--4--2--|--2------2----------2--2--2--|--2------2----------2--2--2--|-----------------------------|-----------------------------|-----0-0----0-0-0-0----------|-----0-0----0-0-0-0----------|
-----------------------------|----------------------------------|-----------------------------|----------------------------------|-----------------------------|----------------------------------|--4------5----------4--5--4--|----------------------------------|--3--3-3-3--3-3-3-3-3--3--3--|--7-----6-----5---4-----3-----0-2-|-----------------------------|----8-0---7-0---7---5-0---3-0-----|
--------------------------------------------------------|--------------------------------------------------------|--------------------------------------------------------|-----------------------------------------------5--8-----|--2--------------------------------------------------6--|--0--0-0-0--0-0-0--0-0-0--0-0-0--0-0-0--0-0-0-----------|
-------------------------------------------------------|-------------------------------------------------------|-------------------------------------------------------|--9/-------------------------------------------7----7--|--7/-------------------------------------------5----5--|-----0-0-0--0-0-0--0-0-0--0-0-0--0-0-0--0-0-0----------|
------------------------------------------------------|------------------------------------------------------|------------------------------------------------------|--5------6---------6--5--3--5------6---------5--8-----|--3--3-3-3--3-3-3--3--3--3--3--3-3-3--3-3-3--------6--|------------------------------------------------------|
----------------------------------------------------------|----------------------------------------------------------|----------------------------------------------------------|--9/------------------------------------------------------|--7/-2-2-2--2-2-2--2-2-2--2-2-8--8-8-8--8-8-7--7-7-5--2-3-|-----0-0-0--0-0-0--0-0-0--0-0-6--6-6-6--6-6-5--5-5-3--0-1-|
---------------------------------------------------------|---------------------------------------------------------|---------------------------------------------------------|------------------------------------------------5--8-----|--2--2-2-5--2-2-2-2-2-2-4--2-2-2--2-2-5--4/5-8--------6--|--0--0-0-3--0-0-0-0-0-0-2--0-0-0--0-0-3--2/3-6-----------|
---------------------------------------------------------|---------------------------------------------------------|---------------------------------------------------------|------------------------------------------------3--0-----|--2--2-2-5--2-2-2-2-2-2-4--2-2-2--2-2-5--4/5-3-----------|--0--0-0-3--0-0-0-0-0-0-2--0-0-0--0-0-3--2/3-1--------1--|
---------------------------------------------------------|---------------------------------------------------------|---------------------------------------------------------|------------------------------------------------5--8-----|--2--2-2-5--2-2-2-2-2-2-4--2-2-2--2-2-5--4/5-8--------6--|--0--0-0-3--0-0-0-0-0-0-2--0-0-0--0-0-3--2/3-6-----------|
----------------------------------------------------------|-------------------|----------------------------------------------------------|-------------------|----------------------------------------------------------|-------------------|----------------------------------------------------3-----|--2----------------|--2--2-2-5--2-2-2-2-2-2-4--2-2-2--2-2-5--2-2-2--2-2-1-5---|--2----------------|--0--0-0-3--0-0-0-0-0-0-2--0-0-0--0-0-3--0-0-0--0-0---3---|--0----------------|
-------------------|-------------------|--------------------|-------------------|-------------------|--------------------|-------------------|-------------------|--------------------|--3----------------|--2----------------|--5--------3--------|--3----------------|--2----------------|--5--------3--------|--1----------------|--0----------------|--3--------1--------|
-------------------|-------------------|-------------------|-------------------|-------------------|-------------------|-------------------|-------------------|-------------------|--2----------------|--3----------------|--2----------------|--2----------------|--3----------------|--2----------------|--0----------------|--1----------------|--0----------------|
--------------------|-----------------------------------|--------------------|-----------------------------------|--------------------|-----------------------------------|--5--------3--------|-----------------------------------|--5--------3--------|--2--------------------------------|--3--------1--------|--0--------------------------------|
----------------------------------------|----------------------------------------|--2-4---4------------------2------------|--0-2---2------------------0------------|---------------------5-4----------------|---------------------3-2----------------|
---------------------------------------------|---------------------------------------------|---------------------------------------------|---------------------5-5---4-5---5-7---------|--5-7---7------------3-3---2-3---3-5---5-4---|--3-5---5------------------------------3-2---|
----------------------------------------|----------------------------------------|--2-4---4------------------2------------|--0-2---2------------------0------------|---------------------5-4----------------|---------------------3-2----------------|
---------------------------------------------|---------------------------------------------|---------------------------------------------|---------------------5-5---4-5---5-7---------|--5-7---7------------3-3---2-3---3-5---5-4---|--3-5---5------------------------------3-2---|
----------------------------------------|----------------------------------------|--2-4---4------------------2------------|--0-2---2------------------0------------|---------------------5-4----------------|---------------------3-2----------------|
---------------------------------------------|---------------------------------------------|---------------------------------------------|---------------------5-5---4-5---5-7---------|--5-7---7------------3-3---2-3---3-5---5-4---|--3-5---5------------------------------3-2---|
----------------------------------------|----------------------------------------|--2-4---4------------------2------------|--0-2---2------------------0------------|---------------------5-4----------------|---------------------3-2----------------|
---------------------------------------------|---------------------------------------------|---------------------------------------------|---------------------5-5---4-5---5-7---------|--5-7---7------------3-3---2-3---3-5---5-4---|--3-5---5------------------------------3-2---|
------------------------------------------------------------------|------------------------------------------------------------------|------------------------------------------------------------------|------------------------------------------------------------------|--3-2-----2-0-----0-------------5-3-2-----2-0-----0-------------5-|------5-3-----3-2---3-2-0-3-2-0-------5-3-----3-2---3-2-0-3-2-0---|
------------------------------------------------------------------|------------------------------------------------------------------|------------------------------------------------------------------|------------------------------------------------------------------|--3-2-----2-0-----0-------------5-3-2-----2-0-----0-------------5-|------5-3-----3-2---3-2-0-3-2-0-------5-3-----3-2---3-2-0-3-2-0---|
--------------------||--------------------||--------------------||--------------------||--3-2---------------||--1-0---------------||
Sami Yli-Sirniö
D||------------------|------------------|------------------|------------------|A||------------------|------------------|------------------|------------------|F||------------------|------------------|------------------|------------------|C||------------------|------------------|------------------|------------------|G||------------------|------------------|------------------|------------------|D||------------------|------------------|------------------|------------------|
-------------------------------|-------------------------------|--------6-5--6-5-6-------------|--------6-5--6-5-6---------6-8-|----4-7-------------9-7-9--7-5-|----4-7-------------9-7-9------|-------------------------------|-------------------------------|--7----------------------------|--7----------------------------|-------------------------------|-------------------------------|
-------------------------------|---------------------------------|--------6-5--6-5-6-------------|------------------6-5-----8-7----|----4-7-------------9-7-9--7-5-|------4-5-7-5-4-------5-4-----7--|-------------------------------|----5-----------7----------------|--7----------------------------|--7------------------------------|-------------------------------|---------------------------------|
-------------------------------|-------------------------------|--------6-5--6-5-6-------------|--------6-5--6-5-6---------6-8-|----4-7-------------9-7-9--7-5-|----4-7-------------9-7-9------|-------------------------------|-------------------------------|--7----------------------------|--7----------------------------|-------------------------------|-------------------------------|
-------------------------------|------------------5---------------|--------6-5--6-5-6-------------|--------------------8-6-5-8-6-5---|----4-7-------------9-7-9--7-5-|------4-5-7-5-4-----------------7-|-------------------------------|----5-----------7-----------------|--7----------------------------|--7-------------------------------|-------------------------------|----------------------------------|
--------------------------------------------------------|--------------------------------------------------------|--------------------------------------------------------|-----------------------------------------------5--8-----|--2--------------------------------------------------6--|--0--0-0-0--0-0-0--0-0-0--0-0-0--0-0-0--0-0-0-----------|
--------------------------------------------------------|--------------------------------------------------------|--------------------------------------------------------|--9/-------------------------------------------7-----7--|--7/-------------------------------------------5-----5--|-----0-0-0--0-0-0--0-0-0--0-0-0--0-0-0--0-0-0-----0-----|
------------------------------------------------------|------------------------------------------------------|------------------------------------------------------|--5------6---------6--5--3--5------6---------5--8-----|--3--3-3-3--3-3-3--3--3--3--3--3-3-3--3-3-3--------6--|------------------------------------------------------|
----------------------------------------------------------|----------------------------------------------------------|----------------------------------------------------------|--9/------------------------------------------------------|--7/-2-2-2--2-2-2--2-2-2--2-2-8--8-8-8--8-8-7--7-7-5--2-3-|-----0-0-0--0-0-0--0-0-0--0-0-6--6-6-6--6-6-5--5-5-3--0-1-|
---------------------------------------------------------|---------------------------------------------------------|---------------------------------------------------------|------------------------------------------------5--8-----|--2--2-2-5--2-2-2-2-2-2-4--2-2-2--2-2-5--4/5-8--------6--|--0--0-0-3--0-0-0-0-0-0-2--0-0-0--0-0-3--2/3-6-----------|
---------------------------------------------------------|---------------------------------------------------------|---------------------------------------------------------|------------------------------------------------3--0-----|--2--2-2-5--2-2-2-2-2-2-4--2-2-2--2-2-5--4/5-3-----------|--0--0-0-3--0-0-0-0-0-0-2--0-0-0--0-0-3--2/3-1--------1--|
---------------------------------------------------------|---------------------------------------------------------|---------------------------------------------------------|------------------------------------------------5--8-----|--2--2-2-5--2-2-2-2-2-2-4--2-2-2--2-2-5--4/5-8--------6--|--0--0-0-3--0-0-0-0-0-0-2--0-0-0--0-0-3--2/3-6-----------|
----------------------------------------------------------|----------------------------------------------------------|----------------------------------------------------------|----------------------------------------------------3-----|--2--2-2-5--2-2-2-2-2-2-4--2-2-2--2-2-5--2-2-2--2-2-1-5---|--0--0-0-3--0-0-0-0-0-0-2--0-0-0--0-0-3--0-0-0--0-0---3---|
-------------------------------|-------------------------------|--------6-5--6-5-6-------------|--------6-5--6-5-6---------6-8-|----4-7-------------9-7-9--7-5-|----4-7-------------9-7-9------|-------------------------------|-------------------------------|--7----------------------------|--7----------------------------|-------------------------------|-------------------------------|
-------------------------------|------------------5---------------|--------6-5--6-5-6-------------|--------------------8-6-5-8-6-5---|----4-7-------------9-7-9--7-5-|------4-5-7-5-4-----------------7-|-------------------------------|----5-----------7-----------------|--7----------------------------|--7-------------------------------|-------------------------------|----------------------------------|
--------------------------------------------------------|--------------------------------------------------------|--------------------------------------------------------|-----------------------------------------------5--8-----|--2--------------------------------------------------6--|--0--0-0-0--0-0-0--0-0-0--0-0-0--0-0-0--0-0-0-----------|
--------------------------------------------------------|--------------------------------------------------------|--------------------------------------------------------|--9/-------------------------------------------7-----7--|--7/-------------------------------------------5-----5--|-----0-0-0--0-0-0--0-0-0--0-0-0--0-0-0--0-0-0-----0-----|
------------------------------------------------------|------------------------------------------------------|------------------------------------------------------|--5------6---------6--5--3--5------6---------5--8-----|--3--3-3-3--3-3-3--3--3--3--3--3-3-3--3-3-3--------6--|------------------------------------------------------|
----------------------------------------------------------|----------------------------------------------------------|----------------------------------------------------------|--9/------------------------------------------------------|--7/-2-2-2--2-2-2--2-2-2--2-2-8--8-8-8--8-8-7--7-7-5--2-3-|-----0-0-0--0-0-0--0-0-0--0-0-6--6-6-6--6-6-5--5-5-3--0-1-|
---------------------------------------------------------|---------------------------------------------------------|---------------------------------------------------------|------------------------------------------------5--8-----|--2--2-2-5--2-2-2-2-2-2-4--2-2-2--2-2-5--4/5-8--------6--|--0--0-0-3--0-0-0-0-0-0-2--0-0-0--0-0-3--2/3-6-----------|
---------------------------------------------------------|---------------------------------------------------------|---------------------------------------------------------|------------------------------------------------3--0-----|--2--2-2-5--2-2-2-2-2-2-4--2-2-2--2-2-5--4/5-3-----------|--0--0-0-3--0-0-0-0-0-0-2--0-0-0--0-0-3--2/3-1--------1--|
---------------------------------------------------------|---------------------------------------------------------|---------------------------------------------------------|------------------------------------------------5--8-----|--2--2-2-5--2-2-2-2-2-2-4--2-2-2--2-2-5--4/5-8--------6--|--0--0-0-3--0-0-0-0-0-0-2--0-0-0--0-0-3--2/3-6-----------|
----------------------------------------------------------|----------------------------------------------------------|----------------------------------------------------------|----------------------------------------------------3-----|--2--2-2-5--2-2-2-2-2-2-4--2-2-2--2-2-5--2-2-2--2-2-1-5---|--0--0-0-3--0-0-0-0-0-0-2--0-0-0--0-0-3--0-0-0--0-0---3---|
-----------------------------------------|-----------------------------------------|----------------------------6--5---------|--5-------------------------8--7--8--7---|--7----------------------7--------10-8---|-----------------------------------------|
------------------------------------------|------------------------------------------|-----------------------------6--5---------|--8--------------------------8--7--8--7---|--10----------------------7--------10-8---|------------------------------------------|
-----------------------------------------|-----------------------------------------|----------------------------6--5---------|--5-------------------------8--7--8--7---|--7----------------------7--------10-8---|-----------------------------------------|
------------------------------------------|-----------------------------------|------------------------------------------|-----------------------------------|-----------------------------6--5---------|-----------------------------------|--8--------------------------8--7--8--7---|-----------------------------------|--10----------------------7--------10-8---|-----------------------------------|------------------------------------------|--0--------------------------------|
-------------------------------------|-------------------------------------|-------------------------------------|-------------------------------------|------------------14/-------x--------|------------------12/-------x--------|
--------------------------------------------------------------------------------|--------------------------------------------------------------------------------|--------------------------------------------------------------------------------|--5-------5-------4-5-----------------------5-------5-------5---4-------4-------|----------------------7-----------------------3-3-3---3-3-3---3---3-3-3---3-3-3-|----0-0-0---0-0-0-------0-0-0-0-0-0-0-0-0-0-------------------------------------|
--------------------------------------------------------------------------------|--------------------------------------------------------------------------------|----------------------------------------------------------------2-------2-------|--5-------5-------4-5-----------------------5-------5-------5-------------------|----------------------7-----------------------3-3-3---3-3-3---3---3-3-3---3-3-3-|----0-0-0---0-0-0-------0-0-0-0-0-0-0-0-0-0-------------------------------------|
--------------------------------------------------------------------------------|--------------------------------------------------------------------------------|--------------------------------------------------------------------------------|--5-------5-------4-5-----------------------5-------5-------5---4-------4-------|----------------------7-----------------------3-3-3---3-3-3---3---3-3-3---3-3-3-|----0-0-0---0-0-0-------0-0-0-0-0-0-0-0-0-0-------------------------------------|
--------------------------------------------------------------------------------|--------------------------------------------------------------------------------|----------------------------------------------------------------2-------2-------|--5-------5-------4-5-----------------------5-------5-------5-------------------|----------------------7-----------------------3-3-3---3-3-3---3---3-3-3---3-3-3-|----0-0-0---0-0-0-------0-0-0-0-0-0-0-0-0-0-------------------------------------|
--12-0-0-0-10-0-0-0-8-0-0-0-7-0-0-0-12-0-0-0-10-0-0-0-8-0-0-0-7-0-0-0-|----------------------------------------------------------------------|----------------------------------------------------------------------|----------------------------------------------------------------------|----------------------------------------------------------------------|----------------------------------------------------------------------|
--13-0-0-0-12-0-0-0-10-0-0-0-8-0-0-0-13-0-0-0-12-0-0-0-10-0-0-0-8-0-0-0-|------------------------------------------------------------------------|------------------------------------------------------------------------|------------------------------------------------------------------------|------------------------------------------------------------------------|------------------------------------------------------------------------|
--12-0-0-0-10-0-0-0-8-0-0-0-7-0-0-0-12-0-0-0-10-0-0-0-8-0-0-0-7-0-0-0-|----------------------------------------------------------------------|----------------------------------------------------------------------|----------------------------------------------------------------------|----------------------------------------------------------------------|----------------------------------------------------------------------|
--13-0-0-0-12-0-0-0-10-0-0-0-8-0-0-0-13-0-0-0-12-0-0-0-10-0-0-0-8-0-0-0-|------------------------------------------------------------------------|------------------------------------------------------------------------|------------------------------------------------------------------------|------------------------------------------------------------------------|------------------------------------------------------------------------|
-------------------------|-------------------------|-------------------------|-------------------------|-------------------------|-------------------------|--9------7-9-10----10r---|--9------10-9-------9b---|--9------7-9-10----10r---|-------------------------|--------------12---------|-------------------------|-------------------------|-------------------------|-------------------------|-------------------------|-------------------------|-------------------------|
---------------------------------------------|-----------------------------|---------------------------------------------|-----------------------------|-------------9-------------------------------|--4------5----------2--4--2--|--9-12-10-12---12-10-12-12-10-9-10-10-9----9-|--2------2----------2--2--2--|----------------------------------------12---|-----------------------------|---------------------------------------------|-----0-0----0-0-0-0----------|
-----------------------------|-----------------------------|-----------------------------|-----------------------------|--4------5----------2--4--2--|-----------------------------|--2------2----------2--2--2--|--4------5----------4--5--4--|-----------------------------|--3--3-3-3--3-3-3-3-3--3--3--|-----0-0----0-0-0-0----------|-----------------------------|
-----------------------------|-----------------------------|-----------------------------|-----------------------------|-----------------------------|--4------5----------2--4--2--|--4------5----------5--4--5--|--2------2----------2--2--2--|--5--5-5-5--5-5-5-5-5--5--5--|-----------------------------|-----------------------------|-----0-0----0-0-0-0----------|
-----------------------------|-----------------------------|-----------------------------|-----------------------------|--4------5----------2--4--2--|-----------------------------|--2------2----------2--2--2--|--4------5----------4--5--4--|-----------------------------|--3--3-3-3--3-3-3-3-3--3--3--|-----0-0----0-0-0-0----------|-----------------------------|
---------------------------------------|---------------------------------------|---------------------------------------|---------------------------------------|--10------9------8----8-----7----------|-----12-0---10-0---10---8-0---8-0-9-10-|
--------------------------------------------------------|--------------------------------------------------------|--------------------------------------------------------|-----------------------------------------------5--8-----|--2--------------------------------------------------6--|--0--0-0-0--0-0-0--0-0-0--0-0-0--0-0-0--0-0-0-----------|
--------------------------------------------------------|--------------------------------------------------------|--------------------------------------------------------|--9/-------------------------------------------7-----7--|--7/-------------------------------------------5-----5--|-----0-0-0--0-0-0--0-0-0--0-0-0--0-0-0--0-0-0-----0-----|
------------------------------------------------------|------------------------------------------------------|------------------------------------------------------|--5------6---------6--5--3--5------6---------5--8-----|--3--3-3-3--3-3-3--3--3--3--3--3-3-3--3-3-3--------6--|------------------------------------------------------|
----------------------------------------------------------|----------------------------------------------------------|----------------------------------------------------------|--9/------------------------------------------------------|--7/-2-2-2--2-2-2--2-2-2--2-2-8--8-8-8--8-8-7--7-7-5--2-3-|-----0-0-0--0-0-0--0-0-0--0-0-6--6-6-6--6-6-5--5-5-3--0-1-|
---------------------------------------------------------|---------------------------------------------------------|---------------------------------------------------------|------------------------------------------------5--8-----|--2--2-2-5--2-2-2-2-2-2-4--2-2-2--2-2-5--4/5-8--------6--|--0--0-0-3--0-0-0-0-0-0-2--0-0-0--0-0-3--2/3-6-----------|
---------------------------------------------------------|---------------------------------------------------------|---------------------------------------------------------|------------------------------------------------3--0-----|--2--2-2-5--2-2-2-2-2-2-4--2-2-2--2-2-5--4/5-3-----------|--0--0-0-3--0-0-0-0-0-0-2--0-0-0--0-0-3--2/3-1--------1--|
---------------------------------------------------------|---------------------------------------------------------|---------------------------------------------------------|------------------------------------------------5--8-----|--2--2-2-5--2-2-2-2-2-2-4--2-2-2--2-2-5--4/5-8--------6--|--0--0-0-3--0-0-0-0-0-0-2--0-0-0--0-0-3--2/3-6-----------|
----------------------------------------------------------|----------------------------------------------------------|----------------------------------------------------------|----------------------------------------------------3-----|--2--2-2-5--2-2-2-2-2-2-4--2-2-2--2-2-5--2-2-2--2-2-1-5---|--0--0-0-3--0-0-0-0-0-0-2--0-0-0--0-0-3--0-0-0--0-0---3---|
-------------------------------|-------------------------------|--------6-5--6-5-6-------------|--------6-5--6-5-6---------6-8-|----4-7-------------9-7-9--7-5-|----4-7-------------9-7-9------|-------------------------------|-------------------------------|--7----------------------------|--7----------------------------|-------------------------------|-------------------------------|
-------------------------------|---------------------------------|--------6-5--6-5-6-------------|------------------6-5-----8-7----|----4-7-------------9-7-9--7-5-|------4-5-7-5-4-------5-4-----7--|-------------------------------|----5-----------7----------------|--7----------------------------|--7------------------------------|-------------------------------|---------------------------------|
-------------------------------|-------------------------------|--------6-5--6-5-6-------------|--------6-5--6-5-6---------6-8-|----4-7-------------9-7-9--7-5-|----4-7-------------9-7-9------|-------------------------------|-------------------------------|--7----------------------------|--7----------------------------|-------------------------------|-------------------------------|
-------------------------------|------------------5---------------|--------6-5--6-5-6-------------|--------------------8-6-5-8-6-5---|----4-7-------------9-7-9--7-5-|------4-5-7-5-4-----------------7-|-------------------------------|----5-----------7-----------------|--7----------------------------|--7-------------------------------|-------------------------------|----------------------------------|
-----------------------------------|----------------------------------------|-----------------------------------|----------------------------------------|--9--------------------------------|--2-4---4------------------2------------|--9--------------------------------|--0-2---2------------------0------------|-----------------------------------|---------------------5-4----------------|-----------------------------------|---------------------3-2----------------|
---------------------------------------------|---------------------------------------------|---------------------------------------------|---------------------5-5---4-5---5-7---------|--5-7---7------------3-3---2-3---3-5---5-4---|--3-5---5------------------------------3-2---|
----------------------------------------|----------------------------------------|--2-4---4------------------2------------|--0-2---2------------------0------------|---------------------5-4----------------|---------------------3-2----------------|
---------------------------------------------|---------------------------------------------|---------------------------------------------|---------------------5-5---4-5---5-7---------|--5-7---7------------3-3---2-3---3-5---5-4---|--3-5---5------------------------------3-2---|
-------------------------------------------|-------------------------------------------|------9----12----9----9----11--9----7------|-------------------------------------------|-------------------------------------------|-------------------------------------------|
---------------------------------------------|-----------------10----10b---10--8----7------|------9----12--------------------------------|---------------------------------------------|---------------------------------------------|---------------------------------------------|
-------------------------------------------|-------------------------------------------|------9----12----9----9----11--9----7------|-------------------------------------------|-------------------------------------------|-------------------------------------------|
---------------------------------------------|-----------------10----10b---10--8----7------|------9----12--------------------------------|---------------------------------------------|---------------------------------------------|---------------------------------------------|
------------------------------------------------------------------|------------------------------------------------------------------|------------------------------------------------------------------|------------------------------------------------------------------|--3-2-----2-0-----0-------------5-3-2-----2-0-----0-------------5-|------5-3-----3-2---3-2-0-3-2-0-------5-3-----3-2---3-2-0-3-2-0---|
------------------------------------------------------------------|------------------------------------------------------------------|------------------------------------------------------------------|--2-0-----0-----------------------2-0-----0-----------------------|------3-2---3-2-0-3-2-0---2-0---2-----3-2---3-2-0-3-2-0---2-0---2-|------------------------3-----3-------------------------3-----3---|
--------------------||--------------------||--------------------||--------------------||--3-2---------------||--1-0---------------||
Harmony Guitar
D||------------------|------------------|------------------|------------------|A||------------------|------------------|------------------|------------------|F||------------------|------------------|------------------|------------------|C||------------------|------------------|------------------|------------------|G||------------------|------------------|------------------|------------------|D||------------------|------------------|------------------|------------------|
-------------------------------|-------------------------------|--------6-5--6-5-6-------------|--------6-5--6-5-6---------6-8-|----4-7-------------9-7-9--7-5-|----4-7-------------9-7-9------|-------------------------------|-------------------------------|--7----------------------------|--7----------------------------|-------------------------------|-------------------------------|
-------------------------------|---------------------------------|--------6-5--6-5-6-------------|------------------6-5-----8-7----|----4-7-------------9-7-9--7-5-|------4-5-7-5-4-------5-4-----7--|-------------------------------|----5-----------7----------------|--7----------------------------|--7------------------------------|-------------------------------|---------------------------------|
--------------------------------|--------------------------------|--------9-8--9-8-9--8-6-8-------|--------9-8--9-8-9--8-6-8--9-11-|------9--------------------10-9-|------9-------------------------|----9---------------------------|----9---------------------------|--7-----------------------------|--7-----------------------------|--------------------------------|--------------------------------|
--------------------------------|----------------------------------------|--------9-8--9-8-9--8-6-8-------|--------8-9-8---------------------------|------9--------------------10-9-|------9-------10-9-10-9-------9---------|----9---------------------------|----9-------------------12-10---12-10-9-|--7-----------------------------|--7-------------------------------------|--------------------------------|----------------------------------------|
----------------------------------|----------------------------------|----------------------------------|----------------------------------|----------------------------------|----------------------------------|----------------------------------|----------------------------------|----------------------------------|----------------------------------|----------------------------------|----------------------------------|
----------------------------------|----------------------------------|----------------------------------|----------------------------------|----------------------------------|----------------------------------|----------------------------------|----------------------------------|----------------------------------|----------------------------------|----------------------------------|----------------------------------|
----------------------------------|----------------------------------|----------------------------------|----------------------------------|----------------------------------|----------------------------------|----------------------------------|----------------------------------|----------------------------------|----------------------------------|----------------------------------|----------------------------------|
----------------------------------|----------------------------------|----------------------------------|----------------------------------|----------------------------------|----------------------------------|----------------------------------|----------------------------------|----------------------------------|----------------------------------|----------------------------------|----------------------------------|
--------------------------------|--------------------------------|--------9-8--9-8-9--8-6-8-------|--------9-8--9-8-9--8-6-8--9-11-|------9--------------------10-9-|------9-------------------------|----9---------------------------|----9---------------------------|--7-----------------------------|--7-----------------------------|--------------------------------|--------------------------------|
--------------------------------|----------------------------------------|--------9-8--9-8-9--8-6-8-------|--------8-9-8---------------------------|------9--------------------10-9-|------9-------10-9-10-9-------9---------|----9---------------------------|----9-------------------12-10---12-10-9-|--7-----------------------------|--7-------------------------------------|--------------------------------|----------------------------------------|
------------------------------------|------------------------------------|------------------------------------|------------------------------------|------------------------------------|------------------------------------|--14--------------------------------|--14--------------------------------|------------------------------------|------------------------------------|------------------------------------|------------------------------------|
----------------------------------|----------------------------------|----------------------------------|----------------------------------|----------------------------------|----------------------------------|----------------------------------|----------------------------------|----------------------------------|----------------------------------|----------------------------------|----------------------------------|
----------------------------------|----------------------------------|----------------------------------|----------------------------------|----------------------------------|----------------------------------|----------------------------------|----------------------------------|----------------------------------|----------------------------------|----------------------------------|----------------------------------|
----------------------------------|----------------------------------|----------------------------------|----------------------------------|----------------------------------|----------------------------------|----------------------------------|----------------------------------|----------------------------------|----------------------------------|----------------------------------|----------------------------------|
----------------------------------|----------------------------------|----------------------------------|----------------------------------|----------------------------------|----------------------------------|----------------------------------|----------------------------------|----------------------------------|----------------------------------|----------------------------------|----------------------------------|
----------------------------------|----------------------------------|----------------------------------|----------------------------------|----------------------------------|----------------------------------|----------------------------------|----------------------------------|----------------------------------|----------------------------------|----------------------------------|----------------------------------|
----------------------------------|----------------------------------|----------------------------------|----------------------------------|----------------------------------|----------------------------------|----------------------------------|----------------------------------|----------------------------------|----------------------------------|----------------------------------|----------------------------------|
----------------------------------|----------------------------------|----------------------------------|----------------------------------|----------------------------------|----------------------------------|----------------------------------|----------------------------------|----------------------------------|----------------------------------|----------------------------------|----------------------------------|
----------------------------------|----------------------------------|----------------------------------|----------------------------------|----------------------------------|----------------------------------|----------------------------------|----------------------------------|----------------------------------|----------------------------------|----------------------------------|----------------------------------|
----------------------------------------------------------------------|--12-0-0-0-10-0-0-0-8-0-0-0-7-0-0-0-12-0-0-0-10-0-0-0-8-0-0-0-7-0-0-0-|----------------------------------------------------------------------|----------------------------------------------------------------------|----------------------------------------------------------------------|----------------------------------------------------------------------|
------------------------------------------------------------------------|--13-0-0-0-12-0-0-0-10-0-0-0-8-0-0-0-13-0-0-0-12-0-0-0-10-0-0-0-8-0-0-0-|------------------------------------------------------------------------|------------------------------------------------------------------------|------------------------------------------------------------------------|------------------------------------------------------------------------|
----------------------------------------------------------------------|--12-0-0-0-10-0-0-0-8-0-0-0-7-0-0-0-12-0-0-0-10-0-0-0-8-0-0-0-7-0-0-0-|----------------------------------------------------------------------|----------------------------------------------------------------------|----------------------------------------------------------------------|----------------------------------------------------------------------|
------------------------------------------------------------------------|--13-0-0-0-12-0-0-0-10-0-0-0-8-0-0-0-13-0-0-0-12-0-0-0-10-0-0-0-8-0-0-0-|------------------------------------------------------------------------|------------------------------------------------------------------------|------------------------------------------------------------------------|------------------------------------------------------------------------|
----------------------------|----------------------------|--12---------12-13----13r---|--12------13-12-------12b---|----------14----------------|----------------14----------|----------------------------|----------------------------|----------------------------|----------------------------|----------------------------|----------------------------|
----------------------------|--------------------------------------------------|--12---------12-13----13r---|-----12-10-12-13-12-10-12-12----------------------|----------14----------------|--12-------------------------14-12-14-14-12-11-12-|----------------------------|--------------------------------------------------|----------------------------|--------------------------------------------------|----------------------------|--------------------------------------------------|
-------------------|------------------|-------------------|-------------------|-------------------|------------------|-------------------|-------------------|-------------------|------------------|-------------------|-------------------|-------------------|------------------|--5----------------|--4----------------|--2----------------|------------------|--3----------------|--5----------------|--0----------------|------------------|-------------------|-------------------|
-------------------|------------------|-------------------|------------------|-------------------|------------------|-------------------|------------------|-------------------|------------------|-------------------|------------------|-------------------|------------------|--5----------------|------------------|--2----------------|------------------|--3----------------|------------------|--0----------------|------------------|-------------------|------------------|
----------------------------------|----------------------------------|----------------------------------|----------------------------------|----------------------------------|----------------------------------|----------------------------------|----------------------------------|----------------------------------|----------------------------------|----------------------------------|----------------------------------|
----------------------------------|----------------------------------|----------------------------------|----------------------------------|----------------------------------|----------------------------------|----------------------------------|----------------------------------|----------------------------------|----------------------------------|----------------------------------|----------------------------------|
----------------------------------|----------------------------------|----------------------------------|----------------------------------|----------------------------------|----------------------------------|----------------------------------|----------------------------------|----------------------------------|----------------------------------|----------------------------------|----------------------------------|
----------------------------------|----------------------------------|----------------------------------|----------------------------------|----------------------------------|----------------------------------|----------------------------------|----------------------------------|----------------------------------|----------------------------------|----------------------------------|----------------------------------|
-------------------------------|-------------------------------|--------6-5--6-5-6-------------|--------6-5--6-5-6---------6-8-|----4-7-------------9-7-9--7-5-|----4-7-------------9-7-9------|-------------------------------|-------------------------------|--7----------------------------|--7----------------------------|-------------------------------|-------------------------------|
-------------------------------|---------------------------------|--------6-5--6-5-6-------------|------------------6-5-----8-7----|----4-7-------------9-7-9--7-5-|------4-5-7-5-4-------5-4-----7--|-------------------------------|----5-----------7----------------|--7----------------------------|--7------------------------------|-------------------------------|---------------------------------|
--------------------------------|--------------------------------|--------9-8--9-8-9--8-6-8-------|--------9-8--9-8-9--8-6-8--9-11-|------9--------------------10-9-|------9-------------------------|----9---------------------------|----9---------------------------|--7-----------------------------|--7-----------------------------|--------------------------------|--------------------------------|
--------------------------------|----------------------------------------|--------9-8--9-8-9--8-6-8-------|--------8-9-8---------------------------|------9--------------------10-9-|------9-------10-9-10-9-------9---------|----9---------------------------|----9-------------------12-10---12-10-9-|--7-----------------------------|--7-------------------------------------|--------------------------------|----------------------------------------|
----------------------------------|----------------------------------|----------------------------------|----------------------------------|----------------------------------|----------------------------------|----------------------------------|----------------------------------|----------------------------------|----------------------------------|----------------------------------|----------------------------------|
----------------------------------|----------------------------------|----------------------------------|----------------------------------|----------------------------------|----------------------------------|----------------------------------|----------------------------------|----------------------------------|----------------------------------|----------------------------------|----------------------------------|
----------------------------------|----------------------------------|----------------------------------|----------------------------------|----------------------------------|----------------------------------|
------------15----------------14-------------
Tap to rate this tab
 
# A B C D E F G H I J K L M N O P Q R S T U V W X Y Z