Ks Choice – Favorite Adventure Wedding Song tab

capo on the 7th (!) fret

verse + chorus

|--------0-------------0-------------0----------------0-----||----------1--------1----1--------1----1---------1------1---||-----0------0----0--------0-------0-----0-----0----0-----0-||---2-----------3--------------2-----------2^3--------------||-3--------------------------3------------------------------||-----------------------------------------------------------|
|-----------------------------------------||-----1---------1---------1---------1-----||-------0---------0---------0---------0---||---2-----2---2-----2---3-----3---3-----3-||-3---------3---------3---------3---------||-----------------------------------------|
|-----------------------------------------||-----1---------1---------0---------0-----||-------2---------2---------0---------0---||---2-----2---2-----2---0-----0---0-----0-||-0---------0-----------------------------||---------------------3---------3---------|
|-----------------------------------------||-----1---------1---------1---------1-----||-------0---------0---------0---------0---||---2-----2---2-----2---3-----3---3-----3-||-3---------3---------3---------3---------||-----------------------------------------|
||------1-------------------------------------------||||*-------3-----------1^0-------1------------------*||||----2-----2-------0-----0-------2-------2-----2---||||--0-----------0^2-----------3-----3---3-----3-----||||*-----------3------------------------------------*||||--------------------------1---------1-----0-------||
|-----1---------------------------------------||-------3-----------1^0-------1---------1-----||---2-----2-------0-----0-------2---------2---||-0-----------0^2-----------3-----3---3-----3-||-----------3---------------------------------||-------------------------1---------1---------|
|-----------------------------------------||-----0---------0---------0---------0-----||-------0---------0---------0---------0---||---0-----0---0-----0---0-----0---0-----0-||-----------------------------------------||-3---------3---------3---------3---------|
bridge
|-----------------------------------------||-----1---------1---------1---------1-----||-------0---------0---------0---------0---||---2-----2---2-----2---3-----3---3-----3-||-3---------3---------3---------3---------||-----------------------------------------|
|-----------0------------------------------||-------0^1---1---1--------0---------0-----||-----2---------2---2--------0---------0---||---2--------------------0-----0---0-----0-||-0----------------------------------------||----------------------3---------3---------|
|------------------------------------------||-----1---------1---------1---------1------||-------3---------3---------2---------2----||---3-----3---3-----3---3-----3---3-----3--||-1---------1------------------------------||---------------------1---------1----------|
|-----------------------------------------||-----0---------0---------0---------0-----||-------0---------0---------0---------0---||---0-----0---0-----0---0-----0---0-----0-||-----------------------------------------||-3---------3---------3---------3---------|
--------------------------------------------------------------------------- Lyrics: There you are, your beauty consoles me I've come far And I almost didn’t found you And I almost lived without you There is nothing in this world I’d rather do Then live in you Here we go, our favorite adventure You should know I was never more complete And I’d never thought I’d see The meaning of my life wrapped in you next to me If you ever fear Someday we might lose this Come back here To this moment that will last And time can go so fast When everything’s exactly Where it’s at its very best
Please rate this tab:
x1.0