Kutless - Somewhere In The Sky tab

Song: Somewhere in the Sky
Artist: Kutless
Tuning: Drop Db

This tab is 100% correct! Please rate and comment


Intro

|---------------------------------------------------------||---------------------------------------------------------||--9-9-9-9/12-12-12-12-12-12------------------------------||--7-7-7-7/10-10-10-10-10-10--0-0--0-0--0--0--0--0-0-0-0--| 2x|--7-7-7-7/10-10-10-10-10-10--0-0--0-0--0--0--0--0-0-0-0--||--7-7-7-7/10-10-10-10-10-10--0-0--0-0--0--0--0--0-0-0-0--|
Verse 1
Guitar 1 (You slide from each note to the next)|------------------------------------------------||--13--15--10--10--13--15--10--6-13--15--10--8--||------------------------------------------------||------------------------------------------------||------------------------------------------------||------------------------------------------------|
Guitar 2|---------------------------------------------------------------||---------------------------------------------------------------||----------5--------------5-------------5------------5/7-5-7/5--||----3------3-------3------3------0------0------0---------------||------------3--------------3-------------0---------------------||--3---3----------3---3---------0---0---------0---0-------------|
|---------------------------------------||---------------------------------------||----------5----5------------5---5-----||----5----------5--5-----5--------5-5--||--3---3---------------3---3------------||---------------------------------------|
Pre-Chorus 1
Guitar 1|-------------------||-------------------||--7-7-7-7-7-7-7-7--||--5-5-5-5-5-5-5-5--| 2x|--5-5-5-5-5-5-5-5--||--5-5-5-5-5-5-5-5--|
Guitar 2|-------------------||-------------------||-------------------||--5-5-5-5-5-5-5-5--| 2x|--5-5-5-5-5-5-5-5--||--5-5-5-5-5-5-5-5--|
Chorus 1
Guitars 1&2|---------------------------------------------------------||---------------------------------------------------------||--9-9-9-9/12-12-12-12-12-12------------------------------||--7-7-7-7/10-10-10-10-10-10--0-0--0-0--0--0--0--0-0-0-0--| 2x|--7-7-7-7/10-10-10-10-10-10--0-0--0-0--0--0--0--0-0-0-0--||--7-7-7-7/10-10-10-10-10-10--0-0--0-0--0--0--0--0-0-0-0--|
|-------------------------------------------------------||-------------------------------------------------------||--9-9-9-9-9-9-9-9-9-9-9/5-5-5-5-5-5-5/7-7-7-7-7-7-7-7--||--7-7-7-7-7-7-7-7-7-7-7/3-3-3-3-3-3-3/5-5-5-5-5-5-5-5--||--7-7-7-7-7-7-7-7-7-7-7/3-3-3-3-3-3-3/5-5-5-5-5-5-5-5--||--7-7-7-7-7-7-7-7-7-7-7/3-3-3-3-3-3-3/5-5-5-5-5-5-5-5--|
|---------------------------------------------------------||---------------------------------------------------------||--9-9-9-9/12-12-12-12-12-12------------------------------||--7-7-7-7/10-10-10-10-10-10--0-0--0-0--0--0--0--0-0-0-0--||--7-7-7-7/10-10-10-10-10-10--0-0--0-0--0--0--0--0-0-0-0--||--7-7-7-7/10-10-10-10-10-10--0-0--0-0--0--0--0--0-0-0-0--|
Verse 2
Guitar 1 (You slide from each note to the next)|------------------------------------------------||--13--15--10--10--13--15--10--6-13--15--10--8--||------------------------------------------------||------------------------------------------------||------------------------------------------------||------------------------------------------------|
Guitar 2|---------------------------------------------------------------||---------------------------------------------------------------||----------5--------------5-------------5------------5/7-5-7/5--||----3------3-------3------3------0------0------0---------------||------------3--------------3-------------0---------------------||--3---3----------3---3---------0---0---------0---0-------------|
|---------------------------------------||---------------------------------------||----------5----5------------5---5-----||----5----------5--5-----5--------5-5--||--3---3---------------3---3------------||---------------------------------------|
Pre-Chorus 2
Guitar 1|-------------------||-------------------||--7-7-7-7-7-7-7-7--||--5-5-5-5-5-5-5-5--| 2x|--5-5-5-5-5-5-5-5--||--5-5-5-5-5-5-5-5--|
Guitar 2|-------------------||-------------------||-------------------||--5-5-5-5-5-5-5-5--| 2x|--5-5-5-5-5-5-5-5--||--5-5-5-5-5-5-5-5--|
Chorus 2
Guitars 1&2|---------------------------------------------------------||---------------------------------------------------------||--9-9-9-9/12-12-12-12-12-12------------------------------||--7-7-7-7/10-10-10-10-10-10--0-0--0-0--0--0--0--0-0-0-0--| 2x|--7-7-7-7/10-10-10-10-10-10--0-0--0-0--0--0--0--0-0-0-0--||--7-7-7-7/10-10-10-10-10-10--0-0--0-0--0--0--0--0-0-0-0--|
|-------------------------------------------------------||-------------------------------------------------------||--9-9-9-9-9-9-9-9-9-9-9/5-5-5-5-5-5-5/7-7-7-7-7-7-7-7--||--7-7-7-7-7-7-7-7-7-7-7/3-3-3-3-3-3-3/5-5-5-5-5-5-5-5--||--7-7-7-7-7-7-7-7-7-7-7/3-3-3-3-3-3-3/5-5-5-5-5-5-5-5--||--7-7-7-7-7-7-7-7-7-7-7/3-3-3-3-3-3-3/5-5-5-5-5-5-5-5--|
|---------------------------------------------------------||---------------------------------------------------------||--9-9-9-9/12-12-12-12-12-12------------------------------||--7-7-7-7/10-10-10-10-10-10--0-0--0-0--0--0--0--0-0-0-0--||--7-7-7-7/10-10-10-10-10-10--0-0--0-0--0--0--0--0-0-0-0--||--7-7-7-7/10-10-10-10-10-10--0-0--0-0--0--0--0--0-0-0-0--|
Bridge
Guitars 1&2|----------------------------------------------------------------||----------------------------------------------------------------||----------------------------------------------------------------||------2-2/3------2-2/3-------5-0-8-7-0-5-0-5-7-0-8-7-0-5-0-5-7--| 3x|--0-0-2-2/3--0-0-2-2/3--0-0--5-0-8-7-0-5-0-5-7-0-8-7-0-5-0-5-7--||--0-0-2-2/3--0-0-2-2/3--0-0--5-0-8-7-0-5-0-5-7-0-8-7-0-5-0-5-7--|
. . . . . .|-----------------------------||-----------------------------||-----------------------------||------2-2/3------2-2/3-------| 1x|--0-0-2-2/3--0-0-2-2/3--0-0--||--0-0-2-2/3--0-0-2-2/3--0-0-| . . . . . .
|-------------------||-------------------||-------------------||--0-8-7-0-5-0-5-7--| 3x|--0-8-7-0-5-0-5-7--||--0-8-7-0-5-0-5-7--|
Outro-Chorus
Guitar 1&2|---------------||---------------||----5/7--------||--7/3/5---0-0--||--7/3/5---0-0--||--7/3/5---0-0--| . .
|---------------------------------------------------------||---------------------------------------------------------||--9-9-9-9/12-12-12-12-12-12------------------------------||--7-7-7-7/10-10-10-10-10-10--0-0--0-0--0--0--0--0-0-0-0--||--7-7-7-7/10-10-10-10-10-10--0-0--0-0--0--0--0--0-0-0-0--||--7-7-7-7/10-10-10-10-10-10--0-0--0-0--0--0--0--0-0-0-0--|
|-------------------------------------------------------||-------------------------------------------------------||--9-9-9-9-9-9-9-9-9-9-9/5-5-5-5-5-5-5/7-7-7-7-7-7-7-7--||--7-7-7-7-7-7-7-7-7-7-7/3-3-3-3-3-3-3/5-5-5-5-5-5-5-5--||--7-7-7-7-7-7-7-7-7-7-7/3-3-3-3-3-3-3/5-5-5-5-5-5-5-5--||--7-7-7-7-7-7-7-7-7-7-7/3-3-3-3-3-3-3/5-5-5-5-5-5-5-5--|
|---------------------------------------------------------||---------------------------------------------------------||--9-9-9-9/12-12-12-12-12-12------------------------------||--7-7-7-7/10-10-10-10-10-10--0-0--0-0--0--0--0--0-0-0-0--| x2|--7-7-7-7/10-10-10-10-10-10--0-0--0-0--0--0--0--0-0-0-0--||--7-7-7-7/10-10-10-10-10-10--0-0--0-0--0--0--0--0-0-0-0--|
Tap to rate this tab
 
# A B C D E F G H I J K L M N O P Q R S T U V W X Y Z