Kyuss - Un Sandpiper tab

Artist:		Kyuss
song:		Un Sandpiper
Tabbed by:	Martin Jørgensen
Tuning:		E (Standard)

"I tabbed this in an E tuning because i simply didn't
want to tune my guitar down into a C...
Don't rate it lower because it's not the original Kyuss
tuning but rate it if it sounds right..."

- MJ

-------------------------------------------------------
|		Intro
-------------------------------------------------------

"Hello nobody. Tonight we have a very special musical 
presentation. So, kick back and stretch your sack 
'cause here's Kyuss with UN Sandpiper."

"Don't fuck up."

"Don't fuck yourself."



Bass Intro...

x3|---------------------||--------------------|||---------------------||--------------------|||---------------------||--------------------|||------------------5--||--6--6-5h6p5---3-5--|||--8--8-8p6---6--8----||--------------------|||-----------8---------||--------------------||
x3|---------------------||--------------------|||---------------------||--------------------|||---------------------||-------------8------|||------------------5--||--6--6-5h6p5---3-5--|||--8--8-8p6---6--8----||--------------------|||-----------8---------||--------------------||
Repeat 2 times... ------------------------------------------------------- | Verse 1 -------------------------------------------------------
x3|---------------------||----------------------|||---------------------||----------------------|||--10\\\--xx--xx--xx--||--8h10-10p8----10--8--|||--10\\\--xx--xx--xx--||--8---------10--------|||---8\\\--xx--xx--xx--||----------------------|||---------------------||----------------------||
Repeat 3 times Die for you to take your own life, it's my own life Lie the not, die it is true to the same, two to the same ------------------------------------------------------- | Intro -------------------------------------------------------
x3|---------------------||--------------------|||---------------------||--------------------|||---------------------||--------------------|||------------------5--||--6--6-5h6p5---3-5--|||--8--8-8p6---6--8----||--------------------|||-----------8---------||--------------------||
x3|---------------------||--------------------|||---------------------||--------------------|||---------------------||-------------8------|||------------------5--||--6--6-5h6p5---3-5--|||--8--8-8p6---6--8----||--------------------|||-----------8---------||--------------------||
------------------------------------------------------- | Verse 2 -------------------------------------------------------
x3|---------------------||----------------------|||---------------------||----------------------|||--10\\\--xx--xx--xx--||--8h10-10p8----10--8--|||--10\\\--xx--xx--xx--||--8---------10--------|||---8\\\--xx--xx--xx--||----------------------|||---------------------||----------------------||
Repeat 5 times When you can't see nothin' it's all the same I'm still thinkin' that you're to blame Die for your to take your own life, it's my fuckin' life Lie the not, die it is true to the same, two to the same, yeah, yea ------------------------------------------------------- | Intro/SOLO -------------------------------------------------------
x3|---------------------||--------------------|||---------------------||--------------------|||---------------------||--------------------|||------------------5--||--6--6-5h6p5---3-5--|||--8--8-8p6---6--8----||--------------------|||-----------8---------||--------------------||
x3|---------------------||--------------------|||---------------------||--------------------|||---------------------||-------------8------|||------------------5--||--6--6-5h6p5---3-5--|||--8--8-8p6---6--8----||--------------------|||-----------8---------||--------------------||
Repeat 2 times Then the solo thing Kuyss is a jam band so you can either do like Josh and improvise or try to do the solo. I'll Submit the rest of the tab another day... i'm to f'cking tired to go on... Nut plz drop a comment on the tab if this part is good enough...
Tap to rate this tab
 
# A B C D E F G H I J K L M N O P Q R S T U V W X Y Z