Lacrimas Profundere - Amber Girl tab

ok this is a tab that is not easily founded so here it is

intro:just listen to the song to follow the rythms|------------------------------------------------||------------------------------------------------||------------------------------------------------||-8---4---2---6----------------------------------||-8---4---2---6----------------------------------||-6---2---0---4----------------------------------|
verse in keyboards but you can do it with guitar like this 3 last strings listent to song for tempo and tmes repeat it
Db|-------------8-------8---------------------4-----------4---------8------8|AB|--------------------------(5x)-------------------------------------------|Eb|----------6------6--------------------2---------2---------6---------6----|
pre chorus
last 3 stringsDb|-----2------6---------|Ab|-----2------6---------|Eb1-----0------4---------|
chorus same as intro solo is with wah pedal but for those who doesnt have one like me could play it like this or pick up and down
|----------------------------------------------------------------||----11-11-11-11-11-11-11 9/11-11-11-11-11-11-9/11-11-11-11-11---||----------------------------------------------------------------||----------------------------------------------------------------||----------------------------------------------------------------||----------------------------------------------------------------|
|----------------------------------------------------------------||----11-11-11-11-11-11-9/11-11-11-11-11/13-13/-14-/16------------||----------------------------------------------------------------||----------------------------------------------------------------||----------------------------------------------------------------||----------------------------------------------------------------|
|----------------------------------------------------------------||----11-11-11-11-11-11-11 9/11-11-11-11-11-11-9/11-11-11-11-11---||----------------------------------------------------------------||----------------------------------------------------------------||----------------------------------------------------------------||----------------------------------------------------------------|
|----------------------------------------------------------------||--11p9--9-------------------------------------------------------||------10-10-8h10p8--8----------------8tr9-----------------------||------------------10--10h8-------8-10---------------------------||-----------------------------8h10-------------------------------||----------------------------------------------------------------|
|----------------------------------------------------------------||----11-11-11-11-11-11-11 9/11-11-11-11-11-11-9/11-11-11-11-11---||----------------------------------------------------------------||----------------------------------------------------------------||----------------------------------------------------------------||----------------------------------------------------------------|
|----------------------------------------------------------------||----11-11-11-11-11-11-9/11-11-11-11-11/13-13/-14-/16------------||----------------------------------------------------------------||----------------------------------------------------------------||----------------------------------------------------------------||----------------------------------------------------------------|
|----------------------------------------------------------------||--13h14-/16----13h14/16---14h16h18b20---------------------------||----------------------------------------------------------------||----------------------------------------------------------------||----------------------------------------------------------------||----------------------------------------------------------------|
fast part very simple in the part of the bend when youre retutning to original note before bending keep the up and down pattern
|---------------19p16--19p16--19p16--19p16---19b(21)19-----------||-------------16-----16-----16-----16-----16---------------------||----------------------------------------------------------------||----------------------------------------------------------------||----------------------------------------------------------------||----------------------------------------------------------------|
last part
|-----16------16---------16--------------------------------------||---16--19p16---16--19p16---16--19p16-------------------9b9b9b9b-||----------------------------------------------------------------||----------------------------------------------------------------||----------------------------------------------------------------||----------------------------------------------------------------|
thats all you just need to get how many times to repeat chords above cause i think times the solo are rights see ya.
Tap to rate this tab
 
# A B C D E F G H I J K L M N O P Q R S T U V W X Y Z