Lacrimosa - Der Klech Des Lebens tab

QUE HONGO AMNATES DEL GOTICO AQUI LAS MANDO OTRO GRANDIOSO TAB
TITULO: Der Kelch des Lebens DE Lacrimosa
ALBUM: Inferno
COMPOSITORES: Tilo Wolff, Anne Nurmi, Jay P, AC
TRANSCRITA POR: ROBERT' MARTINEZ (RHOBZEL@HOTMAIL.COM)

 ^ - hammer on, pull off                   
 b - bend string up                        
 r - release bend 			   
 / - slide up     			   
 \ - slide down                            
 ~ - vibrato 				   
 T - tap                                   
 < - moderar volumen  
PM - palm mute                            
AH - armonico artificial

      EADGBe
Esus4 022200 
Asus2 x02200



INTRO:teclados:e|------------------------------------------------------------------------|B|------------------------------------------------------------------------|G|------------------------------------------------------------------------|D|--4------4-4-----------------------------2-------2-2-----------------9--|-|A|--2------2-2--------4---------4-4--------0-------0-0--------2--------7--| |E|--------------------2---------2-2---------------------------0------0-0--| | PM mientras la guitarra . |X2
|
|-------------------------------------------------------------------------| ||-------------------------------------------------------------------------| ||--------------------------------------------------------------------5-5--|-||---------------------5--------5-5----------------------------5------5-5--||--3--------3---------3--------3-3---------5--------5-5-------3------3-3--||--1--------1------------------------------3--------3-3-------------------|
VERSO1: Bm F#m Am E F C Gm C PRE-COROS: G E Am F F-C Esus4-E Asus2-Am Dm-G VERSO2: Bm F#m Am E F C Gm C PRE-COROS: G E Am F F-C Esus4-E Asus2-Am Dm-G
COROS: |--------------------------------------------||--------------------------------------------||--------------------------------------------||--4-4----4.--4-4----4.--4-4----4.--4-4----4-||--2-2-22-2.--2-2-22-2.--2-2-22-2.--2-2-22-2-||--------------------------------------------|
PM .. .. .. |--------------------------------------------||--------------------------------------------||--------------------------------------------||--------------------------------------------||-4-4----4.--4-4----4.--4-4----4.--4-4----4--||-2-2-22-2.--2-2-22-2.--2-2-22-2.--2-2-22-2--|
.. .. .. .. |--------------------------------------------||--------------------------------------------||--------------------------------------------||--2-2----2.--2-2----2.--2-2----2.--2-2----2-||--0-0-00-0.--0-0-00-0.--0-0-00-0.--0-0-00-0-||--------------------------------------------|
.. .. .. .. |--------------------------------------------||--------------------------------------------||--------------------------------------------||-9-9----9.--9-9----9.--9-9----9.--9-9----9--||-7-7----7.--7-7----7.--7-7----7.--7-7----7--||-0-0-00-0.--0-0-00-0.--0-0-00-0.--0-0-00-0--|
.. .. .. ..|------------------------------------------------||------------------------------------------------||------------------------------------------------||------------------------------------------------||--3-3-----3.--3-3-----3.--3-3-----3.--3-3-----3-||--1-1-1-1-1.--1-1-1-1-1.--1-1-1-1-1.--1-1-1-1-1-|
... ... ... ... |--------------------------------------------||--------------------------------------------||--------------------------------------------||-5-5----5.--5-5----5.--5-5----5.--5-5----5--||-3-3-33-3.--3-3-33-3.--3-3-33-3.--3-3-33-3--||--------------------------------------------|
.. .. .. ..|--------------------------------------------||--------------------------------------------||--------------------------------------------||--------------------------------------------||-5-5----5.--5-5----5.--5-5----5.--5-5----5--||-3-3-33-3.--3-3-33-3.--3-3-33-3.--3-3-33-3--|
.. .. .. ..|--------------------------------------------||--------------------------------------------||--------------------------------------------||-5-5----5.--5-5----5.--5-5----5.--5-5----5--||-3-3-33-3.--3-3-33-3.--3-3-33-3.--3-3-33-3--||--------------------------------------------| .. .. .. ..
ES CON VELOCIDAD...|--------------------------------------------||--------------------------------------------||--------------------------------------------||--------------------------------------------|------||-5-5----5.--5-5----5.--5-5----5.--5-5----5--| ||-3-3-33-3.--3-3-33-3.--3-3-33-3.--3-3-33-3--| |
.. .. .. .. ||--------------------------------------------| ||--------------------------------------------| ||--------------------------------------------|------| |--------------------------------------------| ||-2-2----2.--2-2----2.--2-2----2.--2-2----2--| ||-0-0-00-0.--0-0-00-0.--0-0-00-0.--0-0-00-0--| |REPETIR
.. .. .. .. |HASTA EL FINAL|--------------------------------------------| ||--------------------------------------------| ||--------------------------------------------|------||--2-2----2.--2-2----2.--2-2----2.--2-2----2-| ||--0-0-00-0.--0-0-00-0.--0-0-00-0.--0-0-00-0-| ||--------------------------------------------| |
.. .. .. .. ||-----------------------------------------------| ||-----------------------------------------------| ||-----------------------------------------------|---||-----------------------------------------------||-3-3-----3.--3-3-----3.--3-3-----3.--3-3-----3-||-1-1-1-1-1.--1-1-1-1-1.--1-1-1-1-1.--1-1-1-1-1-| ... ... ... ...
Tap to rate this tab
 
# A B C D E F G H I J K L M N O P Q R S T U V W X Y Z