Cold tab with lyrics by Lacuna Coil - Easy chords and tabs for guitar

Lacuna Coil – Cold tab

"COLD"

Tabbed By : Sergio - dearaujo7@hotmail.com

Tuning : E A D G B E 	

Intro and Gtr. 1 of Verse:
 
|----2-------3-------2-------0-------2-------3-------2-------3---||0-------0-------0-------0-------0-------0-------0-------0-------||----------------------------------------------------------------||----------------------------------------------------------------||----------------------------------------------------------------||----------------------------------------------------------------|
Gtr. 2 of Verse:
|----------------------------------------------------------------||----------------------------------------------------------------||----------------------------------------------------------------||9-------7-------4---------------9-------7-------4---------------||7-------5-------2-------5-------7-------5-------2-------5-------||------------------------3-------------------------------3-------|
|----------------------------------------------------------------||----------------------------------------------------------------||----------------------------------------------------------------||9-------7-------4---------------9-------7-------4-------7-------||7-------5-------2-------5-------7-------5-------2-------5-------||------------------------3---------------------------------------|
"Closer and closer..." Chorus:
|----------------------------------------------------------------||----------------------------------------------------------------||----------------------------------------------------------------||----5-------5-------4-------4-------2-------2---------4-------4-||--------------------------------------------------0-------0-----||0-------0-------2-------2-------3-------3-----------------------|
"But Im reachin'..." Chorus:
|----------------------------------------------------------------||----------------------------------------------------------------||----------------------------------------------------------------||----7-------7-------9-------9-------10------10------12------12--||----------------------------------------------------------------||5-------5-------7-------7-------8-------8-------10------10------|
Repeat Verse and Choruses. Interlude:
|----------------------------------------------------------------||----------------------------------------------------------------||--------------------------------------------------------2-------||--------0---------------0---------------4-----------0-------0---||----4-------4-------4-------4-------2-------2-------------------||7---------------5---------------0---------------3---------------|
Solo:
|--------------------17------------------------------------------||14b-15r-14--12--------------15--14h15p14--12--14----------------||----------------14------14-------------------------14---11------||----------------------------------------------------------------||----------------------------------------------------------------||----------------------------------------------------------------|
|----------------------------------------------------------------||------15------14------------------------------------------------||------------------14--0/11--14--11/-9---------------------------||0/12------12----------------------------------------------------||--------------------------------------------0---0---0h--2p--0---||----------------------------------------------------------------|
|----------------------------------------------------------------||----------------------------------------------------------------||----------------14-----9h11p9-7-7-7h9p7-6-6-6h7p6-4-4-4h6p4-2-2-||--------11/-12--------------------------------------------------||0---0-----------------------------------------------------------||----------------------------------------------------------------|
|----------------------------------------------------------------||----------------------------------------------------------------||2h4p2-0-0-0h2p0---------0-------------------14--------------11--||--------------------4-------4-------11--12------12--11--12------||----------------------------------------------------------------||----------------------------------------------------------------|
|----------------------------------------------------------------||----------------------------------------------------------------||----------------------------------------------------------------||12--11--12--14--12--11--12--------------------------------------||----------------------------14------0h--2---2---2---2/--4---4---||----------------------------------------------------------------|
|----------------------------------------------------------------||----------------------------------------------------------------||----------------------------------------------------------------||----------------------------------------------------------------||4---4/--5---5---5---5/--7---7---7-------------------------------||----------------------------------------------------------------|
Repeat Verse and "Closer..." Chorus. Part 4:
|----------------------------------------------------------------||----------------------------------------------------------------||----------------------------------------------------------------||11--11--11----10------10------11--11--11----6-------6-----------||----------------------------------------------------------------||9---9---9-----8-------8-------9---9---9-----4-------4-----------|
Play "But Im reachin'..." chorus twice. Please Vote!
Please rate this tab:
x1.0