Lacuna Coil - My Wings tab

Band- Lacuna Coil
Song- My Wings

Down one whole step : D G C F A D 	


Part I/Gtr. 1: This part is played through almost the entire song.
               After the first little verse omit the second measure
               and play the first continuously.
               
|0-0-0---0---0-0---0-0---0-0-0-0-0-0-0---0---0-0---0-0---0-0-0-0-||0-0-0---0---0-9---0-0---0-0-0-0-0-0-0---0---0-0---0-0---0-0-0-0-||9-9-9---9---9-9---9-9---9-9-9-9-9-9-9---9---9-9---9-9---9-9-9-9-||9-9-9---9---9-9---9-9---9-9-9-9-9-9-9---9---9-9---9-9---9-9-9-9-||7-7-7---7---7-7---7-7---7-7-7-7-7-7-7---7---7-7---7-7---7-7-7-7-||----------------------------------------------------------------|
|0-0-0---0---0-0---0-0---0-0-0-0-0-0-0---0-0-0---0-0-0---0-0-0---||0-0-0---0---0-0---0-0---0-0-0-0-0-0-0---0-0-0---0-0-0---0-0-0---||9-9-9---9---9-9---9-9---9-9-9-9-9-9-9---9-9-9---9-9-9---9-9-9---||9-9-9---9---9-9---9-9---9-9-9-9-9-9-9---9-9-9---9-9-9---9-9-9---||7-7-7---7---7-7---7-7---7-7-7-7-7-7-7---7-7-7---7-7-7---7-7-7---||----------------------------------------------------------------|
Part I/Gtr. 2
|----------------------------------------------------------------||----------------------------------------------------------------||----------------------------------------------------------------||--------------------------------4-------------------------------||2-------------------------------2-------------------------------||0---------------------------------------------------------------|
|----------------------------------------------------------------||----------------------------------------------------------------||----------------------------------------------------------------||----------------------------------------------------------------||5-------------------------------7-7-7---7-7-7---7-7-7---7-7-7---||3-------------------------------5-5-5---5-5-5---5-5-5---5-5-5---|
Part II/Gtr. 2: Play this part with the strumming pattern of Part I/ Gtr. 1.
|----------------------------------------------------------------||----------------------------------------------------------------||----------------------------------------------------------------||9-------------------------------11------------------------------||7-------------------------------9-------------------------------||----------------------------------------------------------------|
|----------------------------------------------------------------||----------------------------------------------------------------||----------------------------------------------------------------||----------------------------------------------------------------||10------------------------------12------------------------------||8-------------------------------10------------------------------|
The Part I/Gtr. 2 is played after this. Chorus/Gtr. 1
|----------------------------------------------------------------||----------------------------------------------------------------||----------------------------------------------------------------||9-----9-------------------5-----9-----9---------7-----7---------||7-----7---9-----5-----5---3-----7-----7---9-----5-----5---3-----||----------7-----3-----3-------------------7---------------1-----|
Chorus/Gtr. 2: This part is barely audible.
|----------------------------------------------------------------||----------------------------------------------------------------||--9---9---7-------11--11--7-------9---9---7-------11--11--12----||----------------------------------------------------------------||7---7---7-------10--10--10------7---7---7-------10--10--10------||----------------------------------------------------------------|
Part III/Gtr. 2: This part comes right before the last chorus. Basically the guitar alternates beween the A on the 5th string, 2nd fret and its ocatave on the 3rd string, 4th fret. The song ends with a D5.
Tap to rate this tab
 
# A B C D E F G H I J K L M N O P Q R S T U V W X Y Z