Lacuna Coil - Un Fanstasma Tra Noi tab

Band- lacuna Coil
Song- Un Fanstasma Tra Noi

Gtr.1 Intro (00:00) Clean|-------------------7-------------------7------||----------------------------------------------||----9----7----9---------9----7----9-----------||----------------------------------------------| {Play this throughout the Intro|-0----0----0----0----0----0----0----0---------||----------------------------------------------|
Gtr.2 (00:10) Distorted|-------------------------------------------------------||-------------------------------------------------------||-4-----------------------------------------------------||-4----------------------------3------------------------||-2----------------------------3------------------------||------------------------------1------------------------|
(00:20)|------------------------------------------------------------------||------------------------------------------------------------------||-2---2---2---2---2---2---2---2-----5---5---5---5---5---5---5----7-||-x---x---x---x---x---x---x---x------------------------------------||-0---0---0---0---0---0---0---0---3---3---3---3---3---3---3---/5---||------------------------------------------------------------------|
|---------------------------------------------------------------------||---------------------------------------------------------------------||---4---4---4---4---4---4---4----5------------------------------------||------------------------------------3---3---3---3---3---3---3---3---3||-2---2---2---2---2---2---2---/3--------------------------------------||----------------------------------1---1---1---1---1---1---1---1---1--|
(00:40)|-------------------------------------||-------------------------------------||-2---------------------2--2--------2-||-2---------------------2--2--------2-||-0---------------------0--0--------0-||-------------------------------------|
|-------------------------------------||-------------------------------------||-5---------------------5--5--------7-||-5---------------------5--5--------7-||-3---------------------3--3--------5-||-------------------------------------|
|-------------------------------------||-------------------------------------||-4---------------------4--4--------5-||-4---------------------4--4--------5-||-2---------------------2--2--------3-||-------------------------------------|
|-------------------------------------||-------------------------------------||-------------------------------------||-3---------------------3-------------||-3---------------------3----/--------||-1---------------------1----/--------|
Riff thingyGtr.1 (1:00) Clean|-------------------------------------------------------------||-------------------------------------------------------------||-14--14--14--14--12--12--12--12—-9--9--9--9--10--10--10—-10--||-------------------------------------------------------------| 2X|-12--12--12--12--10--10--10--10--7—-7--7--7---8---8---8---8--||-------------------------------------------------------------|
Gtr.1 (1:20) Distorted|---------------------------------------------------------------||---------------------------------------------------------------||---14--14--14--14--12--12--12--12—-9--9--9--9--10--10--10—-10--||---------------------------------------------------------------| 2X|-12--12--12--12--10--10--10--10--7—-7--7--7---8---8---8---8----||---------------------------------------------------------------|
Gtr.2 (1:20) Distorted|----------------------------------------------------------------||----------------------------------------------------------------||----------------------------------------------------------------||---7---7---7---7---5---5---5---5---2---2---2---2---3---3---3---3| 2X|----------------------------------------------------------------||-5---5---5---5---3---3---3---3---0---0---0---0---1---1---1---1--|
Solo sound-alike riff (2X) ...this part is not acurateGtr.1 (1:40)|---------------------------------------------||---------------------------------------------||---------------------------------------------||-14-------7-9-10---14-12----14---5-7---17-15-||---------------------------------------------||---------------------------------------------|
Gtr.2|---------------------------------------------||---------------------------------------------||-13------9-11-12--------------9-11-12---19-17||---------------------------------------------||---------------------------------------------||---------------------------------------------|
Gtr.1 (1:51)|---------------------------------------------||---------------------------------------------||---------------------------------------------||-14-----7-9---10-12---10-12------------------||---------------------------------------------||---------------------------------------------|
Gtr.2|---------------------------------------------||---------------------------------------------||-13------9-11-12--------------9-11-12---19-17||---------------------------------------------||---------------------------------------------||---------------------------------------------|
OutroGtr.1 (2:01)|--------------------------------------------------||--------------------------------------------------||-2-----------------2------------------------------||-2-----------------2------------------------------||-0-----------------0------------------------------||--------------------------------------------------|
Gtr.2|-------------------------------------||-------------------------------------||----------9-----------------9--------||-9b---7------------9b---7------------||-------------------------------------||-------------------------------------|
Gtr.1|--------------------------------------------------||--------------------------------------------------||-5------------------------5-----------------------||-5------------------------5-----------------------||-3------------------------3-----------------------||--------------------------------------------------|
Gtr.2|--------------8----7-------------------8---10-----||--------------------------------------------------||----10--9--7----7----7-------10--9--7----7----7---||-7------------------------7-----------------------||--------------------------------------------------||--------------------------------------------------|
Gtr.1|-------------------------------------||-------------------------------------||-4-----------------4-----------------||-4-----------------4-----------------||-2-----------------2-----------------||-------------------------------------|
Gtr.2|-------------------------------------||-------------------------------------||----------9-----------------9--------||-9b---7------------9b---7------------||-------------------------------------||-------------------------------------|
Gtr.1|--------------------------------------------------||--------------------------------------------------||--------------------------------------------------||-3------------------------3-----------------------||-3------------------------3-----------------------||-1------------------------1-----------------------|
Gtr.2|--------------8----7-------------------8---10-----||--------------------------------------------------||----10--9--7----7----7-------10--9--7----7----7---||-7------------------------7-----------------------||--------------------------------------------------||--------------------------------------------------|
Gtr.1 (2:21) Clean|-------------------7-------------------7------||----------------------------------------------||----9----7----9---------9----7----9-----------||----------------------------------------------||-0----0----0----0----0----0----0----0---------||----------------------------------------------|
Gtr.2 (2:21) Distorted|------------------------------------------------------------------||------------------------------------------------------------------||-2---2---2---2---2---2---2---2-----5---5---5---5---5---5---5----7-||-x---x---x---x---x---x---x---x------------------------------------||-0---0---0---0---0---0---0---0---3---3---3---3---3---3---3---/5---||------------------------------------------------------------------|
|---------------------------------------------------------------------||---------------------------------------------------------------------||---4---4---4---4---4---4---4----5------------------------------------||------------------------------------3---3---3---3---3---3---3---3---3||-2---2---2---2---2---2---2---/3--------------------------------------||----------------------------------1---1---1---1---1---1---1---1---1--|
Gtr.1 (2:41)|-------------------7-------------------7------||----------------------------------------------||----9----7----9---------9----7----9-----------||----------------------------------------------||-0----0----0----0----0----0----0----0---------||----------------------------------------------|
Gtr.2 (2:41)|--------------------------------------------------||--------------------------------------------------||-2---2---2---2---2---2---2---2-----2---2---2---2--||-2---2---2---2---2—--2--—2---2--------------------||-0---0---0---0---0---0---0---0---0---0---0---0----||--------------------------------------------------| . . . . . . . . P.M.
|-------------------------------------------------||-------------------------------------------------||-5---5---5---5---5---5---5---5-----5---5---5---7-||-5---5---5---5---5---5---5---5-------------------||-3---3---3---3---3---3---3---3---3---3---3---5---||-------------------------------------------------| . . . . . . . . P.M.
|--------------------------------------------------||--------------------------------------------------||-4---4---4---4---4---4---4---4-----4---4---4---5--||-4---4---4---4---4---4---4---4--------------------||-2---2---2---2---2---2---2---2---2---2---2---3----||--------------------------------------------------| . . . . . . . . P.M.
|--------------------------------------------------||--------------------------------------------------||--------------------------------------------------||-3---3---3---3---3---3---3---3-----3---3---3---3--||-3---3---3---3---3---3---3---3--------------------||-1---1---1---1---1---1---1---1---1---1---1---1----| . . . . . . . . P.M.
Gtr.1 (3:01)|--------------------------------------------------||------11---------11---------11---------11---------||-8-10----10-8-10----10-8-10----10-8-10----10------||--------------------------------------------------||--------------------------------------------------||--------------------------------------------------|
Gtr.2 (3:01)|--------------------------------------------------||--------------------------------------------------||-2------------------------------------------------||-2------------------------------------------------||-0------------------------------------------------||--------------------------------------------------|
Gtr.1|--------------------------------------------------||------11---------11---------11---------11---------||-8-10----10-8-10----10-8-10----10-8-10----10------||--------------------------------------------------||--------------------------------------------------||--------------------------------------------------|
Gtr.2|--------------------------------------------------||--------------------------------------------------||-5------------------------------------------------||-5------------------------------------------------||-3------------------------------------------------||--------------------------------------------------|
Gtr.1 (|--------------------------------------------------||------11---------11---------11---------11---------||-8-10----10-8-10----10-8-10----10-8-10----10------||--------------------------------------------------||--------------------------------------------------||--------------------------------------------------|
Gtr.2|--------------------------------------------------||--------------------------------------------------||-4------------------------------------------------||-4------------------------------------------------||-2------------------------------------------------||--------------------------------------------------|
Gtr.1 (|--------------------------------------------------||------11---------11---------11---------11---------||-8-10----10-8-10----10-8-10----10-8-10----10------||--------------------------------------------------||--------------------------------------------------||--------------------------------------------------|
Gtr.2|--------------------------------------------------||--------------------------------------------------||--------------------------------------------------||-3------------------------------------------------||-3------------------------------------------------||-1------------------------------------------------|
Gtr.1 (3:11)|--------------------------------------------------||------12---------12---------12---------12---------||-9-11----11-9-11----11-9-11----11-9-11----11------||--------------------------------------------------||--------------------------------------------------||--------------------------------------------------|
Gtr.2|--------------------------------------------------||--------------------------------------------------||-2------------------------------------------------||-2------------------------------------------------||-0------------------------------------------------||--------------------------------------------------|
Gtr.1|--------------------------------------------------||------12---------12---------12---------12---------||-9-11----11-9-11----11-9-11----11-9-11----11------||--------------------------------------------------||--------------------------------------------------||--------------------------------------------------|
Gtr.2|--------------------------------------------------||--------------------------------------------------||-5------------------------------------------------||-5------------------------------------------------||-3------------------------------------------------||--------------------------------------------------|
Gtr.1|--------------------------------------------------||------12---------12---------12---------12---------||-9-11----11-9-11----11-9-11----11-9-11----11------||--------------------------------------------------||--------------------------------------------------||--------------------------------------------------|
Gtr.2|--------------------------------------------------||--------------------------------------------------||-4------------------------------------------------||-4------------------------------------------------||-2------------------------------------------------||--------------------------------------------------|
Gtr.1|--------------------------------------------------||------12---------12---------12---------12---------||-9-11----11-9-11----11-9-11----11-9-11----11------||--------------------------------------------------||--------------------------------------------------||--------------------------------------------------|
Gtr.2|--------------------------------------------------||--------------------------------------------------||--------------------------------------------------||-3------------------------------------------------||-3------------------------------------------------||-1------------------------------------------------|
Gtr.1 (3:21)|--------------------------------------------------||------12---------12---------12---------12---------||-9-11----11-9-11----11-9-11----11-9-11----11------||--------------------------------------------------||--------------------------------------------------||--------------------------------------------------|
Gtr.2 (3:21)|--------------------------------------------------||--------------------------------------------------||---2-----2-----2-----2-----2-----2-----2-----2----||--------------------------------------------------||---0-----0-----0-----0-----0-----0-----0-----0----||--------------------------------------------------|
Gtr.1|--------------------------------------------------||------12---------12---------12---------12---------||-9-11----11-9-11----11-9-11----11-9-11----11------||--------------------------------------------------||--------------------------------------------------||--------------------------------------------------|
Gtr.2|--------------------------------------------------||--------------------------------------------------||------5---------5----------5-----------5----------||--------------------------------------------------||-3---------3----------3----------3----------------||--------------------------------------------------|
Gtr.1|--------------------------------------------------||------12---------12---------12---------12---------||-9-11----11-9-11----11-9-11----11-9-11----11------||--------------------------------------------------||--------------------------------------------------||--------------------------------------------------|
Gtr.2|--------------------------------------------------||--------------------------------------------------||------4----------4----------4----------4----------||--------------------------------------------------||-2---------2----------2----------2----------------||--------------------------------------------------|
Gtr.1|--------------------------------------------------||------12---------12---------12---------12---------||-9-11----11-9-11----11-9-11----11-9-11----11------||--------------------------------------------------||--------------------------------------------------||--------------------------------------------------|
Gtr.2|--------------------------------------------------||--------------------------------------------------||--------------------------------------------------||------3-----------3----------3-----------3--------||--------------------------------------------------||-1----------1----------1----------1---------------|
Gtr.1 (3:31) Clean|-------------------------------------------------------------||-------------------------------------------------------------||-14--14--14--14--12--12--12--12—-9--9--9--9--10--10--10—-10--||-------------------------------------------------------------| 2X|-12--12--12--12--10--10--10--10--7—-7--7--7---8---8---8---8--||-------------------------------------------------------------|
Gtr.1 (3:51) Distorted|---------------------------------------------------------------||---------------------------------------------------------------||---14--14--14--14--12--12--12--12—-9--9--9--9--10--10--10—-10--||---------------------------------------------------------------| 2X|-12--12--12--12--10--10--10--10--7—-7--7--7---8---8---8---8----||---------------------------------------------------------------|
Gtr.2 (3:51)|----------------------------------------------------------------||----------------------------------------------------------------||----------------------------------------------------------------||---7---7---7---7---5---5---5---5---2---2---2---2---3---3---3---3| 2X|----------------------------------------------------------------||-5---5---5---5---3---3---3---3---0---0---0---0---1---1---1---1--|
SoloGtr.1 (4:11)|--------------------------------------------------------------||--------------------------------------------------------------||-9--------4--5--4--2------------------------------------------||------------------------5---4-5---7---9—-10-10—-12-12---14-14-||--------------------------------------------------------------||--------------------------------------------------------------|
|---------------------------------------------------------------------||---------------------------------------------------------------------||---------------------------------------------------------------------||-19-19---14-14---12---14--17—-21b--19—17--14-12--10-10-12-10---14--15||------------------------------------------------------------12-------||---------------------------------------------------------------------|
|--------------------------------------------------||-------------------------12h-14h—16hb—14h-12h--8--||--------------------------------------------------||-14/15-12--14--10--12-----------------------------||--------------------------------------------------||--------------------------------------------------|
Breakdown (2X)Gtr.1 (4:32)|--------------------------------------------------||--------------------------------------------------||-----------------------------9--7----9--7---------||-9--7----9--7---------------------7-------7-------||------7-------7-----------------------------------||--------------------------------------------------|
Gtr.2|--------------------------------------------------||--------------------------------------------------||--------------------------------------------------||-7------------------------5-----------------------||-7------------------------5-----------------------||-5------------------------3-----------------------|
Gtr.1|--------------------------------------------------||-10--------10-------------10-------10-------------||----9--7------9--7-----------9--7-----9--7--------||--------------------------------------------------||--------------------------------------------------||--------------------------------------------------|
Gtr.2|--------------------------------------------------||--------------------------------------------------||--------------------------------------------------||-4-----------------------3------------------------||-4-----------------------3------------------------||-2-----------------------1------------------------|
End (3X) (4:52)|-------------------------7--------7---------------||-10-------10--------------------------------------||----9--7-----9--7--9--7-----9--7-----9--7--9--7---||--------------------------------------------------||--------------------------------------------------||--------------------------------------------------|
After the 3rd time, play this 4th time|-------------------------7------------------------||-10-------10----------------------10--------------||----9--7-----9--7--9--7-----9--7-----9-----7-/-9--||----------------------------------------9---------||--------------------------------------------------||--------------------------------------------------|
Tap to rate this tab
 
# A B C D E F G H I J K L M N O P Q R S T U V W X Y Z