Lagwagon - Inspectopr Gadget tab

-------------------------------------------------------------------------------------------------------------------------------------0--2----1---0--------------------0--2--3------3----2---3---------------------------------------------------------
---------------------------------------------------------------------------------------------------2--1------------------------------0--2-----------------------------0--2--3-------------------------------------------------------------------------
-------------------------------------------------------------------------------------------------------------------------------------0--2----1---0--------------------0--2--3------3----2---3---------------------------------------------------------
------------------------------------------------------------------------------------2--1--0-----------2-----------------------------------4--3---2-----------------------------------------------------------------------------------------------------------
-------------------------------------------------------------------------------------------------------------------------------------0--2----1---0--------------------0--2--3------3----2---3---------------------------------------------------------
---------------------------------------------------------------------------------------------------2--1------------------------------0--2-----------------------------0--2--3-------------------------------------------------------------------------
-------------------------------------------------------------------------------------------------------------------------------------0--2----1---0--------------------0--2--3------3----2---3---------------------------------------------------------
Then the bass goes --------------------- --------------------- --------------------- --5--4--3--2---1----- Then guitar goes
-------------------------------------------------2------------------2--2------------------2--0------------------0-------------------
Tap to rate this tab
 
# A B C D E F G H I J K L M N O P Q R S T U V W X Y Z