Lagwagon – Of Mind And Matters tab

||--------------------||||--------------------||||--------------------|| Many times||--6--6-6-6-6-6--6---||||--6--6-6-6-6-6--6---||||--4--4-4-4-4-4--4---|| x x x x
|----------------------------------|----------------------------------||----------------------------------|----------------------------------||----------------------------------|----------------------------------||--6---6-6-6-6-6-6-6-6-6-6-6-6-6-6-|--9----11---9----8----9----8----6-||--6---6-6-6-6-6-6-6-6-6-6-6-6-6-6-|--9----11---9----8----9----8----6-||--4---4-4-4-4-4-4-4-4-4-4-4-4-4-4-|--7----9----7----6----7----6----4-| x x x x x x x x x x x x x x |___________repeat 2 times_________|
|----------------------------------||----------------------------------||----------------------------------||--6---6-6-6-6-6-6-6-6-6-6-6-6-6-6-||--6---6-6-6-6-6-6-6-6-6-6-6-6-6-6-||--4---4-4-4-4-4-4-4-4-4-4-4-4-4-4-| x x x x x x x x x x x x x x
|--------------------------------------------------------------------||--------------------------------------------------------------------||------------------------8-----8-------------------------------------||--------6-----6------------------------9-----9s11------11----11s13--||---------------------------------7--7-----7------9--9-----9---------||--4--4-----4------7--7-----7----------------------------------------|
|--------------------------------|------------------------------------||--------------------------------|------------------------------------||------------------------8-----8-|------------------------------------||--------6-----6-----------------|-------11----11--13--11--9--11--13--||--------------------------------|-9--9------9------------------------||--4--4-----4------7--7-----7----|------------------------------------| |_________finish 1__________________|
|------------------------||------------------------||------------------------||-9--9-9--9--8--8-8--8---||-9--9-9--9--8--8-8--8---||-7--7-7--7--6--6-6--6---||_______finish 2_________|
VERS 1this part is not 100% right. But hey!! the chords are there.|----------------------------------------------------------||----------------------------------------------------------||---------------4--4-4--4-------------------4--4-4--4------||--2--2-2--2-2--4--4-4--4------6--6-6--6-6--4--4-4--4------||--2--2-2--2-2--2--2-2--2-4p2--6--6-6--6-6--2--2-2--2-2h4--||--0--0-0--0-0-----------------4--4-4--4-4-----------------|
-----------------------------------------------------| -----------------------------------------------------| ---------------4--4-4--------------------------------| --2--2-2--2-2--4--4-4---------4--4-4--4-4--4-4-------| --2--2-2--2-2--2--2-2--2-4-6--4--4-4--4-4--4-4-------| --0--0-0--0-0-----------------2--2-2--2-2--2-2-4h5h6-|
|-------------------------------------------------------||-------------------------------------------------------||-----------4-----------6-----------9-------------------||--------6-----------9---------9------------------------||-----6-----------9--------7-----------9-9-9-9-4-4-4-4--||--4-----------7-----------------------7-7-7-7-2-2-2-2--|
x x x x x x x x -----------------------------------------| -----------------------------------------| ----------------4--4-4--4-4--------------| --6--6-6--6-6---4--4-4--4-4---6------4---| --6--6-6--6-6---2--2-2--2-2---6------4---| --4--4-4--4-4-----------------4------2---|
VERS 2|----------------------------------------------------------||----------------------------------------------------------||---------------4--4-4--4-------------------4--4-4--4------||--2--2-2--2-2--4--4-4--4------6--6-6--6-6--4--4-4--4------||--2--2-2--2-2--2--2-2--2-4p2--6--6-6--6-6--2--2-2--2-2h4--||--0--0-0--0-0-----------------4--4-4--4-4-----------------|
-----------------------------------------------------| -----------------------------------------------------| ---------------4--4-4--4-----------------------------| --2--2-2--2-2--4--4-4--4------4--4-4--4-4--4-4-------| --2--2-2--2-2--2--2-2--2-4-6--4--4-4--4-4--4-4-------| --0--0-0--0-0-----------------2--2-2--2-2--2-2-4h5h6-|
|-------------------------------------------------------||-------------------------------------------------------||--4-----------4------------9---------------------------||--6-----------9------------9---------------------------||--6-----------9------------7----------9-9-9-9-4-4-4-4--||--4-----------7-----------------------7-7-7-7-2-2-2-2--|
x x x x x x x x ----------------------------------| ----------------------------------| ----------------4--4-4--4-4-------| --6--6-6--6-6---4--4-4--4-4---4---| --6--6-6--6-6---2--2-2--2-2---4---| --4--4-4--4-4-----------------2---|
|----------------------------------------------|-------------------||----------------------------------------------|-------------------||--9--9-9--9-9-9-------------------------------|-------------------||--9--9-9--9-9-9--11-1111-111111--9--9---11-11-|-13--13-13-13------||--7--7-7--7-7-7--11-1111-111111--9--9---11-11-|-13--13-13-13------||-----------------9--9-9--9-9-9---7--7---9--9--|-11--11-11-11------| |1st 2nd&3rd ending|
|---------------||---------------||---------------||---6-----------||---6-----------||---4-----------||__4th ending__|
|------|--------------------------------------------------------||------|--------------------------------------------------------||------|--------------4--4-4-4-4-4--9--9-9-9-9-9--11-111111111--||------|6--6-6-6-6-6--4--4-4-4-4-4--9--9-9-9-9-9--11-111111111--||--2-4-|6--6-6-6-6-6--2--2-2-2-2-2--7--7-7-7-7-7--9--9-9-9-9-9--||------|4--4-4-4-4-4--------------------------------------------| x x x x x x x x x x x x x x x x x x x x
|---------------------------------------------------------||---------------------------------------------------------||---------------4--4-4-4-4-4------------------------------||-6--6-6-6-6-6--4--4-4-4-4-4--4---------------------------||-6--6-6-6-6-6--2--2-2-2-2-2--4---------------------------||-4--4-4-4-4-4----------------2---------------------------| x x x x x x x x x x
back to intro:|--------------------------------------------------------------------||--------------------------------------------------------------------||------------------------8-----8-------------------------------------||--------6-----6------------------------9-----9s11------11----11s13--||---------------------------------7--7-----7------9--9-----9---------||--4--4-----4------7--7-----7----------------------------------------|
|--------------------------------|------------------------------------||--------------------------------|------------------------------------||------------------------8-----8-|------------------------------------||--------6-----6-----------------|-------11----11--13--11--9--11--13--||--------------------------------|-9--9------9------------------------||--4--4-----4------7--7-----7----|------------------------------------| |_________finish 1__________________|
|-----------------------------------||-----------------------------------||-----------------------------------||-9--9-9--9--8--8-8--8--6-----------||-9--9-9--9--8--8-8--8--6-----------||-7--7-7--7--6--6-6--6--4-----------||_______finish 2____________________|
|------------------------------------||------------------------------------||------------------------------------||--9----11---9----8----9----8----6---||--9----11---9----8----9----8----6---||--7----9----7----6----7----6----4---|
Please rate this tab:
x1.0