Lair Of The Minotaur - Juggernaut Of Metal tab

Lair Of The Minotaur - Juggernaut Of Metal
Tabbed By Dantallica

Tuning: B F# B E G# C#

Legend

b  - bend
~  - vibrato
pb - prebend
r  - release bend
/\ - slides (self explanatory)
h  - hammer on
p  - pull off
PM - Palm Mute
g  - grace note
ph - pinch harmonic
tr - trill 
=  - tremelo pick
.  - Stoccato/Palm Mute

      Intro

C#|-----------------------|-------------------|G#|-----------------------|-------------------|E |-----------------------|-------------------|b |-----------------------|-------------------|F#|-0-0-5-5---------------|-0-0-5-5-----------|B |-0-0-5-5-------(5)/17\-|-0-0-5-5-----------| ^ Hold note
|--------------------|\ |---------------------------|------||--------------------|| |---------------------------|------||--------------------||- X 3 |---------------------------|------||--------------------|| |---------------------------|------||-0-0-5-5----0-5-3---|| |-0-0-5p0-7---0-5h7-3--0----|-X\---||-0-0-5-5----0-5-----|/ |-0-0-5p0-7---0-5h7-3--0----|-X\---| ^Hold note until pickscrape
Part before the singing comes in!
|----------------------------------------------------||----------------------------------------------------||----------------------------------------------------||----------------------------------------------------||-----0-0-5\4-4---0-0-7\6-6---0-0-5\4-4---0-0-3/5-3--||-000-0-0-5\4-4---0-0-7\6-6---0-0-5\4-4---0-0-3/5-3--|
"I, Stand on this hill..."
|--------------------|\ |---------------------||--------------------|| |---------------------||--------------------||- X 3 |---------------------| This whole|--------------------|| |---------------------| section to be|-0-0-5-5----0-5-3---|| |-0-0-5p0-7---0-5h7-3-| played twice|-0-0-5-5----0-5-----|/ |-0-0-5p0-7---0-5h7-3-|
|-----------------------|---------------------||-----------------------|---------------------||-----------------------|---------------------||-----------------------|---------------------||-0-0-5-5---------------|-0-0-5p0-7---0-5h7-3-||-0-0-5-5-------(5)/17\-|-0-0-5p0-7---0-5h7-3-|
"Forged metal, from fires of the hearth"
|--------------------------------------|\|--------------------------------------|||--------------------------------------||- X 4|--------------------------------------|||-7-7-5-5-3/5\3p0-5-5-3-3-2-2-11111-0--|||-7-7-5-5-3/5\3p0-5-5-3-3-2-2-11111-0--|/
(1:22)|-------------------------||-------------------------||-------------------------||-------------------------||-0-0--------------5/17\--||-0-0--(bass fill)-5/17\--|
"I'll Bash your brains out"
|--------------------|\ |---------------------||--------------------|| |---------------------| Again..|--------------------||- X 3 |---------------------| This whole|--------------------|| |---------------------| section to be|-0-0-5-5----0-5-3---|| |-0-0-5p0-7---0-5h7-3-| played twice|-0-0-5-5----0-5-----|/ |-0-0-5p0-7---0-5h7-3-|
(1:48) (Heavy head banging part)
|-----------------|\|-----------------|||-----------------||- X 8|-----------------|||-----------------|||-000-000-000-000-|/ ... ... ... ...
(2:00)
|--------------------------------------|----------------------------------------| \|--------------------------------------|----------------------------------------| ||--------------------------------------|----------------------------------------| ||--------------------------------------|----------------------------------------| ||-0-------0----------3-----3-----3-3-5-|-0-------0----------5-----5-----5-4/5---| ||-0-0-0-0-0-0-0-0--0-3-0-0-3-0-0-3-3/5-|-0-0-0-0-0-0-0-0--0-5-0-0-5-0-0-5-------| | . . . . . . . . . . . . . . . . . . . . X 2
|--------------------------------------|----------------------------------------| ||--------------------------------------|----------------------------------------| ||--------------------------------------|----------------------------------------| ||--------------------------------------|----------------------------------------| ||-0-------0----------3-----3-----3-3-5-|-0-------0----------5-----5-----6-6\5---| ||-0-0-0-0-0-0-0-0--0-3-0-0-3-0-0-3-3/5-|-0-0-0-0-0-0-0-0--0-5-0-0-5-0-0-6-6\5---| /
(2:23)
|-----------------|\ |-----------------||-----------------|| |-----------------||-----------------||- X 3 |-----------------||-----------------|| |-----------------||-----------------|| |-----33333\2-----||-000-000-000-000-|/ |-000-33333\2-----| ... ... ... ... ...
|-----------------|\ |-----------------||-----------------|| |-----------------||-----------------||- X 3 |-----------------||-----------------|| |-----------------||-----------------|| |-----55555\6-----||-000-000-000-000-|/ |-000-55555\6-----| ... ... ... ... ...
|------------------------------------------------------------||------------------------------------------------------------||------------------------------------------------------------||------------------------------------------------------------||---------4\-------------5\4-------------77------------------||-000-000----000-000-000-----000-000-000----000-0-0-3-3-3\2--| ... ... ... ... ... ... ... ... ...
|------------------------------------------------------------||------------------------------------------------------------||------------------------------------------------------------||------------------------------------------------------------||---------4\-------------5\4-------------788888--0-3-5556----||-000-000----000-000-000-----000-000-000---------0-3-5556----| ... ... ... ... ... ... ... ...
(2:47)
|----------------------------|------------------------------------| \|----------------------------|------------------------------------| ||----------------------------|------------------------------------| |- X 2|----------------------------|------------------------------------| ||-0-0-4h5-4ph-~-00-4h5-4ph-~-|-0-0-4h5---00-4h5-4ph-~-------------| ||-0-0-----------00-----------|-0-0-----6-00-----------------------| / . . .. . . ..
Slow breakdown
|---------------------|-----------------------| \|---------------------|-----------------------| ||---------------------|-----------------------| |- X 2|---------------------|-----------------------| ||-0-0-------00--------|-0-0--------00---------| ||-0-0-7h8-7-00-7h8-7--|-0-0-7h8-5--00-7h8-7---| / . . .. . . ..
|------------------------------------| \|------------------------------------| ||------------------------------------| |- X 2|------------------------------------| ||-00--0---00--0---00--0---2-0-2-0-2~-| ||-00--0---00--0---00--0---2-0-2-0-2~-| / .. .. ..
(3:23)
|-----------------------| \ |------------------------| |---------------------------||-----------------------| | |------------------------| |---------------------------||-----------------------| |- X 3 |------------------------| |---------------------------||-----------------------| | |------------------------| |-----------------13-12-----||---11-9----12-11-------| | |---11-9-----------12-11-| |---11-9---/11-10-----------||-0------12-------13-12-| / |-0------12--13-12-------| |-0------12-----------------|
(3:46)
|-------------------------------------||-------------------------------------||-------------------------------------||-------------------------------------||-0-----------------0-----------------||-0-----------------0-----------------|
(3:52)
|----------------||----------------||----------------||----------------||-000011111111---| <-- slowly bend first fret|-000011111111---| ............
(4:04) "Juggernaut Of Metal" (4:26)
|------------------------------| |------------------||------------------------------| |------------------||------------------------------| |------------------||------------------------------| |------------------||-0000-7-00-8-00-7-0000-88\7---| |-0000-8\77-0000---||-0000-7-00-8-00-7-0000-88\7---| |-0000-8\77-0000---| .... .. .. .... .... ....
That's it! :D
Tap to rate this tab
 
# A B C D E F G H I J K L M N O P Q R S T U V W X Y Z