Lamb Of God - Omerta tab

this is my first tab so if u have any thingies comment me|--------------------------------------------------||--------------------------------------------------||--------------------------------------------------||--------------------------------------------------||--------5-------------4--------------7----7--7----||0-0-0-0--0-0-0-000-00---0-0-0-000-00---00---0--786| . . . . . . . ... .. . . . ... .. .. .
|-------------------------------------------------------||-------------------------------------------------------||-------------------------------------------------------||-------------------------------------------------------| (2x)|--------5-------------4--------------7----11---11b/15fb||0-0-0-0--0-0-0-000-00---0-0-0-000-00---00----0---------|
. . . . . . . ... .. . . . ... .. .. .____________________________________________________________________________|--------------------------------------------------||--------------------------------------------------||--------------------------------------------------||--------------------------------------------------||-3-6----------3-6----------3-6---------3-6--3-6---||-3-6----------3-6----------3-6---------3-6--3-6---| . . . . .
|--------------------------------------------------||--------------------------------------------------||--------------------------------------------------||--------------------------------------------------||-3-0----------3-0----------3-0---------3-0--3-0---||-3-0----------3-0----------3-0---------3-0--3-0---| . . . . .
|--------------------------------------------------||--------------------------------------------------||--------------------------------------------------||--------------------------------------------------||-3-6----------3-6----------3-6---------3-6--3-6---||-3-6----------3-6----------3-6---------3-6--3-6---|
. . . . .____________________________________________________________________________|--------------------------------------------------||--------------------------------------------------||--------------------------------------------------||--------------------------------------------------||--------5-------------4--------------7----7--7----||0-0-0-0--0-0-0-000-00---0-0-0-000-00---00---0--786| . . . . . . . ... .. . . . ... .. .. .
|-------------------------------------------------------||-------------------------------------------------------||-------------------------------------------------------||-------------------------------------------------------| (2x)|--------5-------------4--------------7----11---11b/15fb||0-0-0-0--0-0-0-000-00---0-0-0-000-00---00----0---------|
. . . . . . . ... .. . . . ... .. .. .____________________________________________________________________________|--------------------------------------------------||--------------------------------------------------||--------------------------------------------------||--------------------------------------------------||-3-6----------3-6----------3-6---------3-6--3-6---||-3-6----------3-6----------3-6---------3-6--3-6---| . . . . .
|--------------------------------------------------||--------------------------------------------------||--------------------------------------------------||--------------------------------------------------||-3-0----------3-0----------3-0---------3-0--3-0---||-3-0----------3-0----------3-0---------3-0--3-0---| . . . . .
|--------------------------------------------------||--------------------------------------------------||--------------------------------------------------||--------------------------------------------------||-3-6----------3-6----------3-6---------3-6--3-6---||-3-6----------3-6----------3-6---------3-6--3-6---| . . . . .
|--------------------------------------------------||--------------------------------------------------||--------------------------------------------------||--------------------------------------------------||-3-0----------3-0----------3-0---------3-0--3-0---||-3-0----------3-0----------3-0---------3-0--3-0---|
. . . . .____________________________________________________________________________|---------------------------------------------------||---------------------------------------------------||---------------------------------------------------||---------------------------------------------------| |-------6--------------------------6---------0-1-3-4||-3210--6----0-0-0-0-0-0-0---3210--6-0-0-0-0-0-1-3-4| . . . . . . . . . . .
|---------------------------------------------------||---------------------------------------------------||---------------------------------------------------||---------------------------------------------------| |-------6--------------------------6---------0-1-3-4||-3210--6----0-0-0-0-0-0-0---3210--6-0-0-0-0-0-1-3-4|
. . . . . . . . . . . . . . .|---------------------------------------------------||---------------------------------------------------||---------------------------------------------------||---------------------------------------------------| (2x)|-------6--------------------------6---------0-1-3-4||-3210--6----0-0-0-0-0-0-0---3210--6-0-0-0-0-0-1-3-4| . . . . . . . . . . .
____________________________________________________________________________
|---------------------------------------------------||---------------------------------------------------||---------------------------------------------------||---------------------------------------------------| (4x)|6--8~------3--6~------6-5~-------------------------||6--8~--0---3--6~--0---6-5~--0-0-0-0000-------------| . . . . . ....
____________________________________________________________________________
|--------------------------------------------------||--------------------------------------------------||--------------------------------------------------||--------------------------------------------------||--------5-------------4--------------7----7--7----||0-0-0-0--0-0-0-000-00---0-0-0-000-00---00---0--786| . . . . . . . ... .. . . . ... .. .. .
|-------------------------------------------------------||-------------------------------------------------------||-------------------------------------------------------||-------------------------------------------------------| (2x)|--------5-------------4--------------7----11---11b/15fb||0-0-0-0--0-0-0-000-00---0-0-0-000-00---00----0---------| . . . . . . . ... .. . . . ... .. .. .
|-------------------------------------------------------||-------------------------------------------------------||-------------------------------------------------------||-------------------------------------------------------||-------------------------------------------------------||00-----------------------------------------------------| ..
Tap to rate this tab
 
# A B C D E F G H I J K L M N O P Q R S T U V W X Y Z