Lamb Of God – Blood Junkie tab

Band- Lamb Of God
Song- Blood Junkie

E||------------------------|------------------------|------------------------| B||------------------------|------------------------|------------------------| G||------------------------|------------------------|------------------------| D||--14--15----15----------|--14--15----15----------|--14--15----15----------| A||--19--19----19----------|--19--19----19----------|--19--19----19----------| D||----------------0-0-0-0-|----------------0-0-0-0-|----------------0-0-0-0-|
------------------------|------------------------|------------------------| ------------------------|------------------------|------------------------| ------------------------|------------------------|------------------------| --14--15----15----------|--13--14----14----------|--13--14----14----------| --19--19----19----------|--18--18----18----------|--18--18----18----------| ----------------0-0-0-0-|----------------0-0-0-0-|----------------0-0-0-0-|
------------------------|------------------------|------------------------| ------------------------|------------------------|------------------------| ------------------------|------------------------|------------------------| --13--14----14----------|--13--14----14----------|--14--15----15----------| --18--18----18----------|--18--18----18----------|--19--19----19----------| ----------------0-0-0-0-|----------------0-0-0-0-|----------------0-0-0-0-|
------------------------|------------------------|------------------------| ------------------------|------------------------|------------------------| ------------------------|------------------------|------------------------| --14--15----15----------|--14--15----15----------|--14--15----15----------| --19--19----19----------|--19--19----19----------|--19--19----19----------| ----------------0-0-0-0-|----------------0-0-0-0-|----------------0-0-0-0-|
------------------------|------------------------|------------------------| ------------------------|------------------------|------------------------| ------------------------|------------------------|------------------------| --13--14----14----------|--13--14----14----------|--13--14----14----------| --18--18----18----------|--18--18----18----------|--18--18----18----------| ----------------0-0-0-0-|----------------0-0-0-0-|----------------0-0-0-0-|
--------------------||---------------------|--------------------| --------------------||---------------------|--------------------| --------------------||*--------------------|--------------------| --14----------------||*--------------------|--------------------| --18----------------||---------------------|--------------------| ------0--1--0--1/---||---0--0--0--0--0--0--|--0--0--0--0--0--0--|
2x --------------------|--------------------||--------------------| --------------------|--------------------||--------------------| --------------------|-------------------*||--------------------| -----3--------3-----|-------------------*||--------------------| --6--------6--------|--------------------||--------------------| --------0--------0--|--1--0--1--0--1/----||--0--0--0--0--0--0--|
--------------------|--------------------|--------------------| --------------------|--------------------|--------------------| --------------------|--------------------|--------------------| --------------------|-----3--------3-----|--------------------| --------------------|--6--------6-----0--|--1--0--1--0--1--4--| --0--0--0--0--0--0--|--------0--------0--|--1--0--1--0--1--4--|
|---------------------|--------------------|--------------------| |---------------------|--------------------|--------------------| |*--------------------|--------------------|--------------------| |*--------------------|--------------------|-----3--------3-----| |---0--0-----0--0-----|--0--0-----0--0-----|--6-----0--6-----0--| |---0--0--0--0--0--0--|--0--0--0--0--0--0--|--------0--------0--|
---------------------||-----------------|------------------| ---------------------||-----------------|------------------| --------------------*||-----------------|------------------| --------------------*||-----------------|------------------| --1--0--1--0--1--4---||------0--0----0--|--0----0--0----0--| --1--0--1--0--1--4---||------0--0----0--|--0----0--0----0--|
------------------------|--------------------|--------------------| ------------------------|--------------------|--------------------| ------------------------|--------------------|--------------------| --14--15-----13--14-----|--------------------|--------------------| --19--19--0--18--18--0--|--1--0--1--0--1--4--|--0--0-----0--0-----| ----------0----------0--|--1--0--1--0--1--4--|--0--0--0--0--0--0--|
--------------------|--------------------|--------------------| --------------------|--------------------|--------------------| --------------------|--------------------|--------------------| --------------------|-----3--------3-----|--------------------| --0--0-----0--0-----|--6-----0--6-----0--|--1--0--1--0--1--4--| --0--0--0--0--0--0--|--------0--------0--|--1--0--1--0--1--4--|
p.h. -------------------|------------------|-------------------|--------------------| -------------------|------------------|-------------------|--------------------| -------------------|------------------|-------------------|--------------------| -------------------|------------------|-----------3b------|--------------------| -------------------|------------------|-------------------|--2--0--2--3--2--0--| --0--2--2--10------|--0--2--2--9------|--0--2--2----------|--2--0--2--3--2--0--|
p.h. -------------------|------------------|-------------------|--------------------| -------------------|------------------|-------------------|--------------------| -------------------|------------------|-------------------|--------------------| -------------------|------------------|-----------3b------|--------------------| -------------------|------------------|-------------------|--2--0--2--3--2--0--| --0--2--2--10------|--0--2--2--9------|--0--2--2----------|--2--0--2--3--2--0--|
p.h. -------------------|------------------|-------------------|--------------------| -------------------|------------------|-------------------|--------------------| -------------------|------------------|-------------------|--------------------| -------------------|------------------|-----------3b------|--------------------| -------------------|------------------|-------------------|--2--0--2--3--2--0--| --0--2--2--10------|--0--2--2--9------|--0--2--2----------|--2--0--2--3--2--0--|
p.h. -------------------|------------------|-------------------|--------------------| -------------------|------------------|-------------------|--------------------| -------------------|------------------|-------------------|--------------------| -------------------|------------------|-----------3b------|--------------------| -------------------|------------------|-------------------|--2--0--2--3--2--0--| --0--2--2--10------|--0--2--2--9------|--0--2--2----------|--2--0--2--3--2--0--|
|---------------------|--------------------|--------------------| |---------------------|--------------------|--------------------| |*--------------------|--------------------|--------------------| |*--------------------|--------------------|-----3--------3-----| |---0--0-----0--0-----|--0--0-----0--0-----|--6-----0--6-----0--| |---0--0--0--0--0--0--|--0--0--0--0--0--0--|--------0--------0--|
---------------------||-----------------|------------------| ---------------------||-----------------|------------------| --------------------*||-----------------|------------------| --------------------*||-----------------|------------------| --1--0--1--0--1--4---||------0--0----0--|--0----0--0----0--| --1--0--1--0--1--4---||------0--0----0--|--0----0--0----0--|
------------------------|--------------------|--------------------| ------------------------|--------------------|--------------------| ------------------------|--------------------|--------------------| --14--15-----13--14-----|--------------------|--------------------| --19--19--0--18--18--0--|--1--0--1--0--1--4--|--0--0-----0--0-----| ----------0----------0--|--1--0--1--0--1--4--|--0--0--0--0--0--0--|
--------------------|--------------------|--------------------| --------------------|--------------------|--------------------| --------------------|--------------------|--------------------| --------------------|-----3--------3-----|--------------------| --0--0-----0--0-----|--6-----0--6-----0--|--1--0--1--0--1--4--| --0--0--0--0--0--0--|--------0--------0--|--1--0--1--0--1--4--|
p.h. -------------------|------------------|-------------------|--------------------| -------------------|------------------|-------------------|--------------------| -------------------|------------------|-------------------|--------------------| -------------------|------------------|-----------3b------|--------------------| -------------------|------------------|-------------------|--2--0--2--3--2--0--| --0--2--2--10------|--0--2--2--9------|--0--2--2----------|--2--0--2--3--2--0--|
p.h. -------------------|------------------|-------------------|--------------------| -------------------|------------------|-------------------|--------------------| -------------------|------------------|-------------------|--------------------| -------------------|------------------|-----------3b------|--------------------| -------------------|------------------|-------------------|--2--0--2--3--2--0--| --0--2--2--10------|--0--2--2--9------|--0--2--2----------|--2--0--2--3--2--0--|
p.h. -------------------|------------------|-------------------|--------------------| -------------------|------------------|-------------------|--------------------| -------------------|------------------|-------------------|--------------------| -------------------|------------------|-----------3b------|--------------------| -------------------|------------------|-------------------|--2--0--2--3--2--0--| --0--2--2--10------|--0--2--2--9------|--0--2--2----------|--2--0--2--3--2--0--|
p.h. -------------------|------------------|-------------------|--------------------| -------------------|------------------|-------------------|--------------------| -------------------|------------------|-------------------|--------------------| -------------------|------------------|-----------3b------|--------------------| -------------------|------------------|-------------------|--2--0--2--3--2--0--| --0--2--2--10------|--0--2--2--9------|--0--2--2----------|--2--0--2--3--2--0--|
--------------------|--------------------|--------------------| --------------------|--------------------|--------------------| *-------------------|--------------------|--------------------| *-------------------|--------------------|--------------------| --6--5-----------6--|--5--------5--6--5--|-----------6--5-----| --------0--3--0-----|-----0--3-----------|--0--3--0--------0--|
--------------------|--------------------|--------------------| --------------------|--------------------|--------------------| --------------------|--------------------|--------------------| --------------------|--------------------|--------------------| -----5--6--5--------|-----6--5--------5--|--6--5-----------6--| --3-----------0--3--|--0--------0--3-----|--------0--3--0-----|
--------------------| --------------------| -------------------*| -------------------*| --5--------5--6--5--| -----0--3-----------|
^This is where Gtr. II comes in second time around, and where vv starts 6x ---------------|-----------------------------------| ---------------|-----------------------------------| ---------------|*---------------------------------*| -8-7-----------|*8-7-----------------8-7----------*| -6-5-0--3-0--0-|-6-5-0-0-0-0-0-0-----6-5-0--3-0--0-| -----0--3-0--0-|-----0-0-0-0-0-0-0-3-----0--3-0--0-| . . . . . . . . . . . .
Final repeat of ^^above^^ riff vp.h. -------------------------------------------------------| -------------------------------------------------------| *------------------------------------------------------| *8-7---------------------------------------------------| -6-5-0-0-0-0-0-0------6-5-7-6-5---8-7--9-8-7--2-1-3----| -----0-0-0-0-0-0-0-3------7-6-5--------9-8-7--------1~-| . . . . . . . . . . . . . .
pm all throughout 3x -------------------------------------------------------| -------------------------------------------------------| *-----------------------------------------------------*| *-----------------------------------------------------*| -------------------------------------------------------| --00-00-000000-00-000000-00-00-000000-00-000000--------|
------------------------------------------------------------------------------| ------------------------------------------------------------------------------| *----------------------------------------------------------------------------*| *----------------------------------------------------------------------------*| ------------------------------------------------------------------------------| -0-0-2--0-0-2--0-0-2--0-0-2--0-0-2--0-0-2--0-0-2--0-0-2--0-0-2--0-0-2--333333-|
3x -------------------------------------------------------| -------------------------------------------------------| *-----------------------------------------------------*| *-----------------------------------------------------*| -------------------------------------------------------| --00-00-000000-00-000000-00-00-000000-00-000000--------|
|------------------------------------------------------------------------------ |------------------------------------------------------------------------------ |*----------------------------------------------------------------------------- |*----------------------------------------------------------------------------- |------------------------------------------------------------------------------ |-0-0-2--0-0-2--0-0-2--0-0-2--0-0-2--0-0-2--0-0-2--0-0-2--0-0-2--0-0-2--333333-
1. 1x 2. ---------------------|---------------------------------------| ---------------------|---------------------------------------| --------------------*|---------------------------------------| --------------------*|---------------------------------------| ---------------------|---------------------------------------| -00-0-00-0-00-0-00-0-|-00-0-00-0-00-0-00-0-00-0-00-0-0-00000-| . . . . . . . . . . .
Gtr.I 3x 1. 2x 2. ----------------|----------------------|-------------------| ----------------|----------------------|-------------------| *--------------*|---------------------*|-------------------| *--------------*|-3-6-5-3-2-5-3-2-----*|-------------------| ----------------|----------------------|--3-6-5-2-5-3------| --000-0-0-0-0---|----------------------|--3-6-5-2-5-3------| ... . . . . . . . . . .
Gtr.II 3x ---------------------------------------------------------------------------| ---------------------------------------------------------------------------| *--14\12--14/15--15\14--14\12--12\10--10/12-12\10-10\9-10\9--10-9-10-9-10-*| *-------------------------------------------------------------------------*| ---12\10--12/13--13\12--12\10--10\8---8/10--10\8--8\7--8\7---8--7-8--7-8---| ---------------------------------------------------------------------------|
-------------------------------------------------|---------| -------------------------------------------------|---------| *-----------------------------------------------*|---------| *-----------------------------------------------*|---------| -----------------------------------------0-1-4-1-|---------|
Please rate this tab:
x1.0