Larc En Ciel - Perfect Blue Ken Part tab

Perfect Blue

email:atomicjp@yahoo.com
add me to yahoo messenger if you want some
larc tabs


E||--8----------------|--10------13----------8--|------------------|B||--8----------------|--9-------------12----8--|------------------|G||--9----------------|--10------------------9--|------------------|D||-------------------|-------------------------|------------------|A||-------------------|-------------------------|------------------|E||-------------------|-------------------------|------------------|
------15--13--15--16----13--|--15--15--13--13--12--12--13/-15--|------13----------------13--|----------------------------------|----------------------------|----------------------------------|----------------------------|----------------------------------|----------------------------|----------------------------------|----------------------------|----------------------------------|
--15/-16----18----16----15/16-|--15----------------|--1----1--1----1--1--1--|------------------------------|--------------------|--3----3--3----3--3--3--|------------------------------|--------------------|--1----1--1----1--1--1--|------------------------------|--------------------|--3----3--3----3--3--3--|------------------------------|--------------------|------------------------|------------------------------|--------------------|------------------------|
--0----0--0----0--0--0--|--1----1--1----1--1--1--|--0----0--0----0--0--0--|--1----1--1----1--1--1--|--3----3--3----3--3--3--|--1----1--1----1--1--1--|--0----0--0----0--0--0--|--1----1--1----1--1--1--|--0----0--0----0--0--0--|--2----2--2----2--2--2--|--3----3--3----3--3--3--|--2----2--2----2--2--2--|--3----3--3----3--3--3--|------------------------|--3----3--3----3--3--3--|------------------------|------------------------|------------------------|
--1----1--1----1--1--1--|--0----0--0----0--0--0--|--2----2--2----2--2--2--|--3----3--3----3--3--3--|--1----1--1----1--1--1--|--3----3--3----3--3--3--|--1----1--1----1--1--1--|--2----2--2----2--2--2--|--2----2--2----2--2--2--|--3----3--3----3--3--3--|--2----2--2----2--2--2--|--0----0--0----0--0--0--|------------------------|--0----0--0----0--0--0--|------------------------|------------------------|------------------------|------------------------|
--1----1--1----1--1--3--|----3--3--3--3--------|--0----0--0----0--0--0--|--1----1--1----1--1--0--|----0--0--0--0--------|--1----1--1----1--1--1--|--2----2--2----2--2--0--|----0--0--0--0--------|--0----0--0----0--0--0--|--3----3--3----3--3--0--|----0--0--0--0--------|--2----2--2----2--2--2--|--3----3--3----3--3--2--|----2--2--2--2--------|--3----3--3----3--3--3--|--1----1--1----1--1--3--|----3--3--3--3--------|------------------------|
--1----1--1----1--1--1--|--0----0--0----0--0--0--|--1----1--1----1--1--1--|--3----3--3----3--3--3--|--1----1--1----1--1--1--|--3----3--3----3--3--3--|--1----1--1----1--1--1--|--0----0--0----0--0--0--|--1----1--1----1--1--1--|--3----3--3----3--3--3--|--2----2--2----2--2--2--|--3----3--3----3--3--3--|------------------------|--3----3--3----3--3--3--|------------------------|------------------------|------------------------|------------------------|
--0----0--0----0--0--0--|--2----2--2----2--2--2--|--1----1--1----1-----4--|--1----1--1----1--1--1--|--3----3--3----3--3--3--|--1----1--1----1-----4--|--2----2--2----2--2--2--|--2----2--2----2--2--2--|--2----2--2----2-----5--|--2----2--2----2--2--2--|--0----0--0----0--0--0--|--3----3--3----3--x--6--|--0----0--0----0--0--0--|------------------------|--3----3--3----3--x--6--|------------------------|------------------------|--1----1--1----1--x--4--|
----4----1----1--1----|-----------3--------------|--------7-----------------|----4----3----3--3----|-----5--------5-----5-----|--9--------9-----9-----9--|----5----3----3--3----|--5-----5--------5-----5--|-----9--------9-----9-----|----6----3----3--3----|--------------------------|--------------------------|----6----1----1--1----|--------------------------|--------------------------|----4-----------------|--------------------------|--------------------------|
--------------8------------------|--11----------10----------10------|------10---------10------10--13--|------13----------12--------------|--10------10---------10------13--|----------13----------12----------|---------------------------------|------------------------------12/-|---------------------------------|----------------------------------|---------------------------------|----------------------------------|
-----------3--------------|-----------7---------------|-----5--------5-----5-----|-----9--------9-----9------|--5-----5--------5-----5/-|--9-----9--------9-----10--|--------------------------|---------------------------|--------------------------|---------------------------|--------------------------|---------------------------|
----------8----------8------11--|----------11------10----------10--|--10---------10-----------------|--13------------------12----------|------10---------10-----10------|------13------13----------12------|--------------------------------|----------------------------------|--------------------------------|----------------------------------|--------------------------------|----------------------------------|
--15--15--13--13--12--12--13/-15--|--15/-16----18----16----15/16-|----------------------------------|------------------------------|----------------------------------|------------------------------|----------------------------------|------------------------------|----------------------------------|------------------------------|----------------------------------|------------------------------|
--15--15--13--13--12--12--13/-15--|--15/-16/---18----16/-------|----------------------------------|------------------------12--|----------------------------------|----------------------------|----------------------------------|----------------------------|----------------------------------|----------------------------|----------------------------------|----------------------------|
--------------------|------------------|--0----0--0----0--0--0--|--13----------------|------------------|--1----1--1----1--1--1--|--------------------|------------------|--0----0--0----0--0--0--|--------------------|------------------|--2----2--2----2--2--2--|--------------------|------------------|--3----3--3----3--3--3--|--------------------|------------------|------------------------|
--1----1--1----1--1--1--|--0----0--0----0--0--0--|--2----2--2----2--2--2--|--3----3--3----3--3--3--|--1----1--1----1--1--1--|--3----3--3----3--3--3--|--1----1--1----1--1--1--|--2----2--2----2--2--2--|--2----2--2----2--2--2--|--3----3--3----3--3--3--|--2----2--2----2--2--2--|--0----0--0----0--0--0--|------------------------|--0----0--0----0--0--0--|------------------------|------------------------|------------------------|------------------------|
--1----1--1----1--1--3--|----3--3--3--3--------|--0----0--0----0--0--0--|--1----1--1----1--1--0--|----0--0--0--0--------|--1----1--1----1--1--1--|--2----2--2----2--2--0--|----0--0--0--0--------|--0----0--0----0--0--0--|--3----3--3----3--3--0--|----0--0--0--0--------|--2----2--2----2--2--2--|--3----3--3----3--3--2--|----2--2--2--2--------|--3----3--3----3--3--3--|--1----1--1----1--1--3--|----3--3--3--3--------|------------------------|
--1----1--1----1--1--1--|--0----0--0----0--0--0--|--1----1--1----1--1--1--|--3----3--3----3--3--3--|--1----1--1----1--1--1--|--3----3--3----3--3--3--|--1----1--1----1--1--1--|--0----0--0----0--0--0--|--1----1--1----1--1--1--|--3----3--3----3--3--3--|--2----2--2----2--2--2--|--3----3--3----3--3--3--|------------------------|--3----3--3----3--3--3--|------------------------|------------------------|------------------------|------------------------|
--0----0--0----0--0--0--|--2----2--2----2--2--2--|--1----1--1----1-----4--|--1----1--1----1--1--1--|--3----3--3----3--3--3--|--1----1--1----1-----4--|--2----2--2----2--2--2--|--2----2--2----2--2--2--|--2----2--2----2-----5--|--2----2--2----2--2--2--|--0----0--0----0--0--0--|--3----3--3----3--x--6--|--0----0--0----0--0--0--|------------------------|--3----3--3----3--x--6--|------------------------|------------------------|--1----1--1----1--x--4--|
----4----1----1--1----|-----------3--------------|--------7-----------------|----4----3----3--3----|-----5--------5-----5-----|--9--------9-----9-----9--|----5----3----3--3----|--5-----5--------5-----5--|-----9--------9-----9-----|----6----3----3--3----|--------------------------|--------------------------|----6----1----1--1----|--------------------------|--------------------------|----4-----------------|--------------------------|--------------------------|
--------------8------------------|--11----------10----------10------|------10---------10------10--13--|------13----------12--------------|--10------10---------10------13--|----------13----------12------12/-|---------------------------------|----------------------------------|---------------------------------|----------------------------------|---------------------------------|----------------------------------|
--5--------3--------------|-----------7--------------|--5--5--------5-----5-----|-----9--------9-----9-----|--5-----5--------5-----5/-|--9-----9--------9-----9--|--------------------------|--------------------------|--------------------------|--------------------------|--------------------------|--------------------------|
--------------8------------------|--11----------10----------10/---|------10---------10------10--13--|------13----------12------12/---|--10------10---------10------13--|----------13----------12--12/---|---------------------------------|--------------------------------|---------------------------------|--------------------------------|---------------------------------|--------------------------------|
--------------------------|--------------------------|--------------------------|--------------------------|--------------------------|--------------------------|--------------------------|--------------------------|--5--5--5--5--5--5--5--5--|--4--4--4--4--4--4--4--4--|--------------------------|--------------------------|
--------------------------|--------------------------|--------------------------|--------------------------|--------------------------|--------------------------|--------------------------|--------------------------|--3--3--3--3--3--3--3--3--|--1--1--1--1--1--1--1--1--|--------------------------|--------------------------|
--------------------------|--------------------------|--------------------------|--------------------------|--------------------------|--------------------------|--------------------------|--------------------------|--5--5--5--5--5--5--5--5--|--4--4--4--4--4--4--4--4--|--------------------------|--------------------------|
--------------------------|--------------------------|-------------------|--------------------------|--------------------------|-------------------|--------------------------|--------------------------|----------------7/-|--------------------------|--------------------------|-------------------|--3--3--3--3--3--3--3--3--|--------------------------|-------------------|--------------------------|--3--3--3--3--3--3--3--3--|-------------------|
-----------------------|--------------------------|-----------------------|----------------10----12--|--12----------9----10/-|--12------12--------------|-----------------------|--------------------------|-----------------------|--------------------------|-----------------------|--------------------------|
---------------------------------------|--------------------------|--10-12-10-12-10-12-10-----------------|--------------------------|------------------------12----12----9--|--9--10----10----9----10--|---------------------------------------|--------------------------|---------------------------------------|--------------------------|---------------------------------------|--------------------------|
---------8---------8--8------|----------------------------13--|-------------------------12--|--13--13--15--13----12--13------|--9--10-----9--10------------|--------------------------------|-----------------------------|--------------------------------|-----------------------------|--------------------------------|-----------------------------|--------------------------------|
--13h-12--12/---------------------|-------------------------------|--------------15--15/-13--13--12--|--12---------------------------|----------------------------------|------12--12/-10--10--9--------|----------------------------------|---------------------------10--|----------------------------------|-------------------------------|----------------------------------|-------------------------------|
-------------------------|----------------------------|-------------------------|------------18----17----15--|----------12----10----9--|--10/-12/-------------------|--10---------------------|----------------------------|-------------------------|----------------------------|-------------------------|----------------------------|
------------------------13--|--13/-12--12/-10--10/-8--8-----|--15/-13----12----13--------|----------------------------8--|----------------------------|-------------------------------|----------------------------|-------------------------------|----------------------------|-------------------------------|----------------------------|-------------------------------|
--------------------15--------|----------------15----15--|------------12--13--------14--|----12----13/-------------|--14----14--------------------|--------------------------|------------------------------|--------------------------|------------------------------|--------------------------|------------------------------|--------------------------|
--17----------17------------16--|------------18--------------|------15------------15----------|----15--14--------18--------|----------17------------17/-----|----------------------19/---|--------------------------------|----------------------------|--------------------------------|----------------------------|--------------------------------|----------------------------|
-----------3--------------|--------7-----------------|-----5--------5-----5-----|--9--------9-----9-----9--|--5-----5--------5-----5--|-----9--------9-----9-----|--------------------------|--------------------------|--------------------------|--------------------------|--------------------------|--------------------------|
--------------8----------8--11--|----------11--------------10------|------10---------10---------13--|--13--------------12--------------|--10------10---------10-----13--|------13------12------12------12/-|--------------------------------|----------------------------------|--------------------------------|----------------------------------|--------------------------------|----------------------------------|
-----------3--------------|--------7-----------------|-----5--------5-----5-----|--9--------9-----9-----9--|--5-----5--------5-----5--|-----9--------9-----9-----|--------------------------|--------------------------|--------------------------|--------------------------|--------------------------|--------------------------|
--------------8----------8--11--|--11----------10--10------------|------10---------10---------13--|------13------12------12--------|--10------10---------10-----13--|----------13--------------12/---|--------------------------------|--------------------------------|--------------------------------|--------------------------------|--------------------------------|--------------------------------|
-----------3--------------|-----------7--------------|-----5--------5-----5-----|--9-----9-----9-----9-----|--5-----5--------5-----5--|-----9-----------9-----9--|--------------------------|--------------------------|--------------------------|--------------------------|--------------------------|--------------------------|
--------------8--------------11--|--11--------------10--------------|------10---------10------10--13--|------13------12------12------12/-|--10------10---------10--10--13--|----------13--12----------12------|---------------------------------|----------------------------------|---------------------------------|----------------------------------|---------------------------------|----------------------------------|
-----------3--------------|--------7-----------------|-----5--------5-----5-----|--9--------9-----9-----9--|--5-----5--------5-----5--|-----9--------9-----9-----|--------------------------|--------------------------|--------------------------|--------------------------|--------------------------|--------------------------|
--------------8----------8--11--|--11--------------10----------10--|------10---------10---------13--|------13------12------12----------|--10------10---------10-----13--|----------13--12----------12------|--------------------------------|----------------------------------|--------------------------------|----------------------------------|--------------------------------|----------------------------------|
--0----0--0----0--0--0--|--1----1--1----1--1--1--|--0----0--0----0--0--0--|--1----1--1----1--1--1--|--3----3--3----3--3--3--|--1----1--1----1--1--1--|--0----0--0----0--0--0--|--1----1--1----1--1--1--|--0----0--0----0--0--0--|--2----2--2----2--2--2--|--3----3--3----3--3--3--|--2----2--2----2--2--2--|--3----3--3----3--3--3--|------------------------|--3----3--3----3--3--3--|------------------------|------------------------|------------------------|
--1----1--1----1--1--1--|--0----0--0----0--0--0--|--1----1--1----1--1--1--|--3----3--3----3--3--3--|--1----1--1----1--1--1--|--3----3--3----3--3--3--|--1----1--1----1--1--1--|--0----0--0----0--0--0--|--1----1--1----1--1--1--|--3----3--3----3--3--3--|--2----2--2----2--2--2--|--3----3--3----3--3--3--|------------------------|--3----3--3----3--3--3--|------------------------|------------------------|------------------------|------------------------|
--0----0--0----0--0--0--|--1----1--1----1--1--1--|--0----------------||--1----1--1----1--1--1--|--3----3--3----3--3--3--|--1----------------||--0----0--0----0--0--0--|--1----1--1----1--1--1--|--0----------------||--2----2--2----2--2--2--|--3----3--3----3--3--3--|--2----------------||--3----3--3----3--3--3--|------------------------|--3----------------||------------------------|------------------------|-------------------||
Tap to rate this tab
 
# A B C D E F G H I J K L M N O P Q R S T U V W X Y Z