Untitled tab with lyrics by Laura Marling - Easy chords and tabs for guitar

Laura Marling – Untitled tab

Untitled (A woman I would be proud to be) - Laura Marling
Based on this performance-
http://www.youtube.com/watch?v=Xn3kcnDp10E
Tuning- C#G#C#G#G#F#
Tuned with Capo 1

INTRO--0--0--0--0--0--0--0--0--0--|--0--0--0--0--0--0--0--0--0--|--0--2--4--5--7--9-10-12-14--| X2--0--0--0--0--0--0--0--0--0--|--0--2--4--5--7--9-10-12-14--|--0--0--0--0--0--0--0--0--0--|
VERSE 1
--0--0--|--0--0--|--0--0--|X4--0--0--|--0--5--|--0--5--|
So your grandmother sounds of me I woman I would be proud to be And you say she reminds you of me Every little boy is so naïve, oh
--0--0--|--0--0--|--2--4--|X5--0--0--|--2--4--|--0--0--|
I will not be a victim of romance I will not be a victim of circumstance Chance of circumstance and romance of any man Who can get his dirty little hands on me Oh, Oh
Play Intro Again--0--0--0--0--0--0--0--0--0--|--0--0--0--0--0--0--0--0--0--|--0--2--4--5--7--9-10-12-14--| X2--0--0--0--0--0--0--0--0--0--|--0--2--4--5--7--9-10-12-14--|--0--0--0--0--0--0--0--0--0--|
VERSE 2
--0--0--|--0--0--|--0--0--|X4--0--0--|--0--5--|--0--5--|
So your grandfather sounds of me Head up, shoulders back, and proud to be Every little girl is so naïve Falling in love with the first man that they see, oh
--0--0--|--0--0--|--2--4--|X5--0--0--|--2--4--|--0--0--|
I will not be a victim of romance I will not be a victim of circumstance Chance of circumstance and romance of any man Who can get his dirty little hands on me Oh, Oh
Play Intro Again--0--0--0--0--0--0--0--0--0--|--0--0--0--0--0--0--0--0--0--|--0--2--4--5--7--9-10-12-14--| X2--0--0--0--0--0--0--0--0--0--|--0--2--4--5--7--9-10-12-14--|--0--0--0--0--0--0--0--0--0--|
BRIDGE
--9--6--4--2--0--|--0--0--0--0--0--|--9--6--4--2--0--|X2--0--0--0--0--0--|--0--0--0--0--0--|--0--0--0--0--0--|
When we were in love If we were When we were in love
--0--5--|--0--5--|--0--5--|--0--5--|--0--5--|--0--5--|
I was an eagle And you were a dove
Play Intro Again--0--0--0--0--0--0--0--0--0--|--0--0--0--0--0--0--0--0--0--|--0--2--4--5--7--9-10-12-14--| X2--0--0--0--0--0--0--0--0--0--|--0--2--4--5--7--9-10-12-14--|--0--0--0--0--0--0--0--0--0--|
VERSE 3
--0--0--|--0--0--|--0--0--|X4--0--0--|--0--5--|--0--5--|
Today I will feel something other than regret Pass me a glass and a half-smoked cigarette I damn near got no dignity left I damn near got no dignity left, oh
--0--0--|--0--0--|--2--4--|X5--0--0--|--2--4--|--0--0--|
I will not be a victim of romance I will not be a victim of circumstance Chance of circumstance and romance of any man Who can get his dirty little hands on me Oh, Oh
Play Intro Again--0--0--0--0--0--0--0--0--0--|--0--0--0--0--0--0--0--0--0--|--0--2--4--5--7--9-10-12-14--| X2--0--0--0--0--0--0--0--0--0--|--0--2--4--5--7--9-10-12-14--|--0--0--0--0--0--0--0--0--0--|
Repeat Bridge
--9--6--4--2--0--|--0--0--0--0--0--|--9--6--4--2--0--|X2--0--0--0--0--0--|--0--0--0--0--0--|--0--0--0--0--0--|
When we were in love If we were When we were in love
--0--0--|--0--0--|--0--0--|--0--0--|--0--5--|--0--5--|
You were a dove And I rose above you and prayed Repeat Bridge again
--9--6--4--2--0--|--0--0--0--0--0--|--9--6--4--2--0--|X2--0--0--0--0--0--|--0--0--0--0--0--|--0--0--0--0--0--|
When we were in love If we were When we were in love
--0--5--|--0--5--|--0--5--|--0--5--|--0--5--|--0--5--|
I was an eagle And you were a dove
Repeat Intro--0--0--0--0--0--0--0--0--0----|--0--0--0--0--0--0--0--0--0----|--0--2--4--5--7--9-10-12-14----| X4--0--0--0--0--0--0--0--0--0----|--0--2--4--5--7--9-10-12-14----|--0--0--0--0--0--0--0--0--0----|
End by strumming this twice--0--|--0--|--12-|--0--|--12-|--0--|
Another lovely song from Ms. Marling. I’m absolutely sure about everything except the bridge, she seems to be tweak it just a bit during each performance. I hope this helps, it’s addicting to play. Cheers, Rachel
Please rate this tab:
x1.0