Led Zeppelin - Custard Pie tab

                                CUSTARD PIE
                           As recorded by Led Zeppelin
                     (From the 1975 Album PHYSICAL GRAFFITI)

Words and Music by Jimmy Page and Robert Plant

Intro Q=92 (A7) A5G5A5 (A7) A5G5A5 (A7) A5G5A5 4/4 Gtr II|-----------------------|-----------------------|--------------------------||-----------------------|-----------------------|-8-----8-(8)---8----------||-----------------------|-----------------------|-6-----6-(6)---6----------||-----------------------|-----------------------|-7-----7-(7)---7--7-5-7---||-----------------------|-----------------------|------------------7-5-7---||-----------------------|-----------------------|--------------------------|
|
| Gtr III|-----------------------|-----------------------|--------------------------||-----------------------|-----------------------|--------------------------||----------------2-0-2--|----------------2-0-2--|------------------2-0-2---||-2-2-2-4-4-4-5--2-0-2--|-2-2-2-4-4-4-5--2-0-2--|-2-2-2-4--4--4-5--2-0-2---||-0-0-0-0-0-0-0--0---0--|-0-0-0-0-0-0-0--0---0--|-0-0-0-0--0--0-0--0---0---||------------------3----|------------------3----|--------------------3-----|
(A7) A5G5A5|-------------------------||-8-----8-(8)---8---------||-6-----6-(6)---6---------||-7-----7-(7)---7--7-5-7--||------------------7-5-7--||-------------------------|
|
|-------------------------||-------------------------||------------------2-0-2--||-2-2-2-4--4--4-5--2-0-2--||-0-0-0-0--0--0-0--0---0--||--------------------3----|
Main riff (A7) A5G5A5 (A7) A5G5A5||--------------------------|-------------------------|||o-8-----8-(8)---8---------|-8-----8-(8)---8---------|||--6-----6-(6)---6---------|-6-----6-(6)---6---------|||--7-----7-(7)---7--7-5-7--|-7-----7-(7)---7--7-5-7--|||o------------------7-5-7--|------------------7-5-7--|||--------------------------|-------------------------|
|
||--------------------------|-------------------------|||o-------------------------|-------------------------|||-------------------2-0-2--|------------------2-0-2--|||--2-2-2-4--4--4-5--2-0-2--|-2-2-2-4--4--4-5--2-0-2--|||o-0-0-0-0--0--0-0--0---0--|-0-0-0-0--0--0-0--0---0--|||---------------------3----|--------------------3----|
(A7) A5G5A5 (A7) A5G5A5 D5|-------------------------|-------------------------|------||-8-----8-(8)---8---------|-8-----8-(8)---8---------|------||-6-----6-(6)---6---------|-6-----6-(6)---6---------|-7----||-7-----7-(7)---7--7-5-7--|-7-----7-(7)---7--7-5-7--|-7----||------------------7-5-7--|------------------7-5-7--|-5----||-------------------------|-------------------------|------|
|
|-------------------------|-------------------------|------||-------------------------|-------------------------|------||------------------2-0-2--|------------------2-0-2--|-7----||-2-2-2-4--4--4-5--2-0-2--|-2-2-2-4--4--4-5--2-0-2--|-7----||-0-0-0-0--0--0-0--0---0--|-0-0-0-0--0--0-0--0---0--|-5----||--------------------3----|--------------------3----|------|
D5C#C5 B5Bb5|----------------------------||----------------------------||--7-6-5-(5)--(5)-5-4-3-(3)--||--7-6-5-(5)--(5)-5-4-3-(3)--||--5-4-3-(3)--(3)-3-2-1-(1)--||----------------------------|
|
|----------------------------||----------------------------||--7-6-5-(5)--(5)-5-4-3-(3)--||--7-6-5-(5)--(5)-5-4-3-(3)--||--5-4-3-(3)--(3)-3-2-1-(1)--||----------------------------|
(A7) A5G5A5 (A7) A5G5A5|-------------------------|-------------------------||-8-----8-(8)---8---------|-8-----8-(8)---8---------||-6-----6-(6)---6---------|-6-----6-(6)---6---------||-7-----7-(7)---7--7-5-7--|-7-----7-(7)---7--7-5-7--||------------------7-5-7--|------------------7-5-7--||-------------------------|-------------------------|
|
|-------------------------|-------------------------||-------------------------|-------------------------||------------------2-0-2--|------------------2-0-2--||-2-2-2-4--4--4-5--2-0-2--|-2-2-2-4--4--4-5--2-0-2--||-0-0-0-0--0--0-0--0---0--|-0-0-0-0--0--0-0--0---0--||--------------------3----|--------------------3----|
E5 G7sus4/D F5 G5 (A7) A5G5A5|---------------|---------------|-------------------------||---------------|---------------|-8-----8-(8)---8---------||-------------7-|--(7)-----5--7-|-6-----6-(6)---6---------||-9------(9)--5-|--(5)-----3--5-|-7-----7-(7)---7--7-5-7--||-7------(7)----|---------------|------------------7-5-7--||---------------|---------------|-------------------------|
|
|---------------|---------------|-------------------------||---------------|---------------|-------------------------||------------10-|-(10)----------|------------------2-0-2--||-9------(9)-10-|-(10)-----3--5-|-2-2-2-4--4--4-5--2-0-2--||-7------(7)-10-|-(10)-----3--5-|-0-0-0-0--0--0-0--0---0--||------------10-|-(10)-----1--3-|--------------------3----|
(A7) A5G5A5|--------------------------|||-8-----8-(8)---8---------o|||-6-----6-(6)---6----------|||-7-----7-(7)---7--7-5-7---|||------------------7-5-7--o|||--------------------------||
|
|--------------------------|||-------------------------o|||------------------2-0-2---|||-2-2-2-4--4--4-5--2-0-2---|||-0-0-0-0--0--0-0--0---0--o|||--------------------3-----||
(A7) A5G5A5|-------------------------||-8-----8-(8)---8---------||-6-----6-(6)---6---------||-7-----7-(7)---7--7-5-7--||------------------7-5-7--||-------------------------|
|
|-------------------------||-------------------------||------------------2-0-2--||-2-2-2-4--4--4-5--2-0-2--||-0-0-0-0--0--0-0--0---0--||--------------------3----|
(A7) A5G5A5 (A7) A5G5A5 (A7) A5G5A5|-------------------------|-------------------------|-------------------------||-8-----8-(8)---8---------|-8-----8-(8)---8---------|-8-----8-(8)---8---------||-6-----6-(6)---6---------|-6-----6-(6)---6---------|-6-----6-(6)---6---------||-7-----7-(7)---7--7-5-7--|-7-----7-(7)---7--7-5-7--|-7-----7-(7)---7--7-5-7--||------------------7-5-7--|------------------7-5-7--|------------------7-5-7--||-------------------------|-------------------------|-------------------------|
|
|-------------------------|-------------------------|-------------------------||-------------------------|-------------------------|-------------------------||------------------2-0-2--|------------------2-0-2--|------------------2-0-2--||-2-2-2-4--4--4-5--2-0-2--|-2-2-2-4--4--4-5--2-0-2--|-2-2-2-4--4--4-5--2-0-2--||-0-0-0-0--0--0-0--0---0--|-0-0-0-0--0--0-0--0---0--|-0-0-0-0--0--0-0--0---0--||--------------------3----|--------------------3----|--------------------3----|
Guitar Solo - (The verse riff is also played the exact same as rhythm guitar for the I took it out because the tabs are completely the same and I wanted to save space) (A7) A5G5A5 (A7) A5G5A5 Gtr I - Done with a wah-wah effect|------------------------------------|------------------------------------||-7b8-----7b8==(7)---7b8==(7)--------|-7b8-----7b8==(7)---7b8==(7)--------||-7b9-----7b9==(7)---7b9==(7)--------|-7b9-----7b9==(7)---7b9==(7)--------||------------------------------------|------------------------------------||------------------------------------|------------------------------------||------------------------------------|------------------------------------|
(A7) A5 G5A5|-----------------------------------------------||-7b8-----7b8==(7)---7b8==(7)-7b8r(7)p5-7p5-----||-7b9-----7b9==(7)---7b9==(7)-7b9r(7)p5-7p5---5-||-------------------------------------------7---||-----------------------------------------------||-----------------------------------------------|
(A7) A5 G5A5|-------------------------------------------------------||-7b8-----7b8==(7)---7b8==(7)r(7)b8-(7)-7b8r7p5-7p5-----||-7b9-----7b9==(7)---7b9==(7)r(7)b9-(7)-7b9r7p5-7p5---5-||---------------------------------------------------7---||-------------------------------------------------------||-------------------------------------------------------|
(A7) A5 G5A5|--------------------------------------------------------||-7b8-----7b8==(7)---7b8==(7)r(7)b8-(7)-7b8r7p5-7p5------||-7b9-----7b9==(7)---7b9==(7)r(7)b9-(7)-7b9r7p5-7p5---5--||---------------------------------------------------7----||--------------------------------------------------------||--------------------------------------------------------|
|
(A7) A5 G5 A5|---------5----------------------------------------||--------------------------------------------------||-7b9-(7)---7b9==(7)r7p==5-7---5-7-5---5b6-----5b6-||----------------------------7-------7-------7-----||--------------------------------------------------||--------------------------------------------------|
D5|-------------------------------------------------||-------------------------------------------------||-9s11-11-11-11-11s9p7---7-7s5--------------------||----------------------9-------7-5s3---3b4---3----||------------------------------------5-----5------||-------------------------------------------------|
D5C#C5 B5Bb5 (A7) A5 G5 A5 15/16 4/4|------------------------|--------------------------------------||------------------------|--------------------------------------||------------------------|----------5--x-7---5-7-5--5b6-(5)-----||--5-4-3-(3)--5-4-3-(3)--|---5-6-7---------7----------------7---||------------------------|-7----------------------------------x-||------------------------|--------------------------------------|
(A7) A5 G5 A5 4/4|------------------------------------------------------------------||-----x-10s12-10-(10)------10-12b14-12b14-12b14==(12)r(12)p10-12---||-9sx-------------------11---------------------------------------x-||------------------------------------------------------------------||------------------------------------------------------------------||------------------------------------------------------------------|
E5 G7sus4/D|--------------------------------------------------||-12b13--12b13-(12)--12b13-12b13-12-10-----10------||--------------------------------------11-----11s9-||--------------------------------------------------||--------------------------------------------------||--------------------------------------------------|
F5 G5|-----------------------------------------------------||-----------------------------------13-15b17-13-15-13-||---------10-12b14-(12)-12-10-12S14-------------------||-----------------------------------------------------||---8S=12---------------------------------------------||-----------------------------------------------------|
(A7) A5 G5 A5|-15------------------------15---------------------||------15b17r(15)-13--15-13----15b17r==(15)-13-----||--------------------------------------------------||--------------------------------------------------||--------------------------------------------------||--------------------------------------------------|
(A7) A5 G5 A5|-15------------------------15----------------------|||------15b17r(15)-13--15-13----15b17r(15)-13-15-13--|||---------------------------------------------------|||---------------------------------------------------|||---------------------------------------------------|||---------------------------------------------------||
4th Verse (main riff) (A7) A5G5A5 (A7) A5G5A5|---------------------------|--------------------------||---------------------------|--------------------------||-14\-----------------------|--------------------------||---------------------------|--------------------------||---------------------------|--------------------------||---------------------------|--------------------------|
|
|---------------------------|--------------------------||--8------8-(8)---8---------|-8-----8-(8)---8----------||--6------6-(6)---6---------|-6-----6-(6)---6----------||--7------7-(7)---7--7-5-7--|-7-----7-(7)---7--7-5-7---||--------------------7-5-7--|------------------7-5-7---||---------------------------|--------------------------|
|
|---------------------------|--------------------------||---------------------------|--------------------------||--------------------2-0-2--|------------------2-0-2---||--2--2-2-4--4--4-5--2-0-2--|-2-2-2-4--4--4-5--2-0-2---||--0--0-0-0--0--0-0--0---0--|-0-0-0-0--0--0-0--0---0---||----------------------3----|--------------------3-----|
(A7) A5G5A5 (A7) A5G5A5 D5 Gtr II|-------------------------|-------------------------|------||-8-----8-(8)---8---------|-8-----8-(8)---8---------|------||-6-----6-(6)---6---------|-6-----6-(6)---6---------|-7----||-7-----7-(7)---7--7-5-7--|-7-----7-(7)---7--7-5-7--|-7----||------------------7-5-7--|------------------7-5-7--|-5----||-------------------------|-------------------------|------|
|
| Gtr III|-------------------------|-------------------------|------||-------------------------|-------------------------|------||------------------2-0-2--|------------------2-0-2--|-7----||-2-2-2-4--4--4-5--2-0-2--|-2-2-2-4--4--4-5--2-0-2--|-7----||-0-0-0-0--0--0-0--0---0--|-0-0-0-0--0--0-0--0---0--|-5----||--------------------3----|--------------------3----|------|
D5C#C5 B5Bb5|----------------------------||----------------------------||--7-6-5-(5)--(5)-5-4-3-(3)--||--7-6-5-(5)--(5)-5-4-3-(3)--||--5-4-3-(3)--(3)-3-2-1-(1)--||----------------------------|
(A7) A5G5A5 (A7) A5G5A5|-------------------------|-------------------------||-8-----8-(8)---8---------|-8-----8-(8)---8---------||-6-----6-(6)---6---------|-6-----6-(6)---6---------||-7-----7-(7)---7--7-5-7--|-7-----7-(7)---7--7-5-7--||------------------7-5-7--|------------------7-5-7--||-------------------------|-------------------------|
|
|-------------------------|-------------------------||-------------------------|-------------------------||------------------2-0-2--|------------------2-0-2--||-2-2-2-4--4--4-5--2-0-2--|-2-2-2-4--4--4-5--2-0-2--||-0-0-0-0--0--0-0--0---0--|-0-0-0-0--0--0-0--0---0--||--------------------3----|--------------------3----|
E5 G7sus4/D F5 G5 (A7) A5G5A5|---------------|---------------|-------------------------|||---------------|---------------|-8-----8-(8)---8---------|||-------------7-|--(7)-----5--7-|-6-----6-(6)---6---------|||-9------(9)--5-|--(5)-----3--5-|-7-----7-(7)---7--7-5-7--|||-7------(7)----|---------------|------------------7-5-7--|||---------------|---------------|-------------------------||
|
|---------------|---------------|-------------------------|||---------------|---------------|-------------------------|||------------10-|-(10)----------|------------------2-0-2--|||-9------(9)-10-|-(10)-----3--5-|-2-2-2-4--4--4-5--2-0-2--|||-7------(7)-10-|-(10)-----3--5-|-0-0-0-0--0--0-0--0---0--|||------------10-|-(10)-----1--3-|--------------------3----||
Then there's a harmonica solo near the end. In the outro the harmonica is still played. guitars play this pattern through the harmonica solo and the outro until the song fades This part is the same as the first part of the main riff.
(A7) A5G5A5 (A7) A5G5A5||--------------------------|-------------------------||||o-8-----8-(8)---8---------|-8-----8-(8)---8--------o||||--6-----6-(6)---6---------|-6-----6-(6)---6---------||||--7-----7-(7)---7--7-5-7--|-7-----7-(7)---7--7-5-7--||||o------------------7-5-7--|------------------7-5-7-o||||--------------------------|-------------------------||
||
||--------------------------|-------------------------||||o-------------------------|------------------------o||||-------------------2-0-2--|------------------2-0-2--||||--2-2-2-4--4--4-5--2-0-2--|-2-2-2-4--4--4-5--2-0-2--||||o-0-0-0-0--0--0-0--0---0--|-0-0-0-0--0--0-0--0---0-o||||---------------------3----|--------------------3----||
Tap to rate this tab
 
# A B C D E F G H I J K L M N O P Q R S T U V W X Y Z