Led Zeppelin - Nobodys Fault But Mine tab

NOBODY'S FAULT BUT MINE
As recorded by Led Zeppelin
(From the 1976 Album PRESENCE)

Transcribed by Victor Ochoa

 Words and Music by Jimmy Page & Robert Plant


   Intro
    Q=92
    (E)
   4/4
    Gtr I
                          ~~~~~                           ~~~~~
||--------------------------------|-------------------------------|||o-15p12-12-15p12-12-15-15b17----|-15p12-12-15p12-12-------------|||--------------------------------|-------------------12-14b16----|||--------------------------------|-------------------------------|||o-------------------------------|-------------------------------|||--------------------------------|-------------------------------|
|
| Gtr II| ~~~~~ ~~~~~||--------------------------------|-------------------------------|||o--3p=0--0--3p=0--0--3--3b5-----|--3p=0--0--3p=0--0-------------|||--------------------------------|--------------------0--2b4-----|||--------------------------------|-------------------------------|||o-------------------------------|-------------------------------|||--------------------------------|-------------------------------|
~~~~~~~|--------------------------------------||-15p12-12-15-(15)--15b17r15-12--------||-------------------------------14p12--||--------------------------------------||--------------------------------------||--------------------------------------|
|
| ~~~~~~~|--------------------------------------||--3p=0--0--3--(3)---3b5r==3--0--------||--------------------------------2p=0--||--------------------------------------||--------------------------------------||--------------------------------------|
5x|--------------------------------------------|||------------------------------------9-(9)--o|||-14p13-13-14p13-13-14-14b16r(14)-13-9-(9)---|||------------------------------------9-(9)---|||-------------------------------------------o|||------------------------------------0-(0)---||
|
| 5x|--------------------------------------------|||-------------------------------------------o|||--2p=1--1--2p=1--1--2--2b4r==(2)--1-1-(1)---|||------------------------------------2-(2)---|||------------------------------------2-(2)--o|||------------------------------------0-(0)---||
|-------------------------------|-------------------------------||-15p12-12-15p12-12-15-15b17----|-15p12-12-15p12-12-------------||-------------------------------|-------------------12-14b16----||-------------------------------|-------------------------------||-------------------------------|-------------------------------||-------------------------------|-------------------------------|
|
|-------------------------------|-------------------------------||--3p=0--0--3p=0--0--3--3b5-----|--3p=0--0--3p=0--0-------------||-------------------------------|--------------------0--2b4-----||-------------------------------|-------------------------------||-------------------------------|-------------------------------||-------------------------------|-------------------------------|
|--------------------------------------||-15p12-12-15-(15)--15b17r15-12--------||-------------------------------14p12--||--------------------------------------||--------------------------------------||--------------------------------------|
|
|--------------------------------------||--3p=0--0--3--(3)---3b5r==3--0--------||--------------------------------2p=0--||--------------------------------------||--------------------------------------||--------------------------------------|
|---------------------------------------------|||--------------------------------------9-(9)--|||-14p13-13-14p13-13-14b16r(14)-(14)p13-9-(9)--|||--------------------------------------9-(9)--|||---------------------------------------------|||--------------------------------------0-(0)--||
|
|---------------------------------------------|||---------------------------------------------|||--2p=1--1--2p=1--1--2b4r==(2)--(2)p=1-1-(1)--|||--------------------------------------2-(2)--|||--------------------------------------2-(2)--|||--------------------------------------0-(0)--||
A5 Gtr II|----------------------------|-----------------------------||----------------------------|-----------------------------||-------7--------------------|-----------------------------||-9s7---7--------------------|-9s7-7-7----------------2----||-7s5-7-5s2-2----------------|-7s5-5-5--0-------------0----||-------------3b4==(3)r-0----|------------3b4==(3)rp0------|
(D) (E)|--------------------------------||--------------------------------||-7-----7---7----------9-x-x-9---||-7---7-7---7-7-9-(9)--9-x-x-9---||-5-0-0-5-0-0-5-7-(7)--7-x-x-7---||-------------0-0-(0)------------|
(D) (E) (D) (E)|--------------------------------------|-------------------------||----------------------9-9-10-10-9-10--|-------------------------||-7-----7-(7)--------9-9-9--9--9-9--9--|-7-----7---7---9---9-9-9-||-7---7-7-(7)-------11-9-9-11-11-9-11--|-7---7-7---7---9---9-9-9-||-5-0-0-5p=0--10-11--------------------|-5-0-0-5-0-0---7---7-7-7-||--------------------------------------|-------------0---0-0-----|
1st Verse (D) (E) (D) (E)|----------------------------------------||--------------------------------||----------------------9-9-10-9-9-10-----||--------------------------------||-7-7---7-(7)--------9-9-9--9-9-9--9-----||-7-----7-(7)-7-------9---9-9-9--||-7-7-7-7-(7)-------11-9-9-11-9-9-11-----||-7---7-7-(7)-7-------9---9-9-9--||-5-0-0-5p=0--10-11------------------0-0-||-5-0-0-5p=0----------7---7-7-7--||----------------------------------------||---------------0-(0)---0-0------|
(D) (E)|----------------------------------------||---------------------9-9-10-9-10-9-10-x-||-7-----7-(7)-------9-9-9--9-9--9-9--9-x-||-7---7-7-(7)-------9-9-9-11-9-11-9-11-x-||-5-0-0-5p=0--10-11----------------------||----------------------------------------|
F#5 G5 A5|--------------------------|----------------------||--------------------------|----------------------||--------------------------|----------------------||-----4-(4)-x-5-5-5-7-(7)--|-7-7-7-7-7-7-7-7-7-7--||-----4-(4)-x-5-5-5-7-(7)--|-7-7-7-7-7-7-7-7-7-7--||-x-x-2-(2)-x-3-3-3-5-(5)--|-5-5-5-5-5-5-5-5-5-5--|
H.=H a tempo Q=92 (E) A5|---------|----------------------------|----------------------------||---------|----------------------------|----------------------------||---------|----------------------------|-----------------------2----||---------|-2p0-0----------------------|-2p0-0-----------------2----||---------|-------2p0-0----------------|-------2p0-0-----------0----||---------|-------------3b4==(3)r-0----|-------------3b4==(3)r------|
(D) (E) (D) (E)|----------------------------------|-------------------------------------||----------------------------------|---------------------9-10-10-9-10-9--||-7-----7-(7)-----------9-x-x-9--9-|-7-7---7-(7)-------9-9--9--9-9--9-9--||-7---7-7-(7)---7-9-(9)-9-x-x-9--9-|-7-7-7-7-(7)-------9-9-11-11-9-11-9--||-5-0-0-5p=0--0-7-7-(7)-7-x-x-7--7-|-5p0-0-5p=0--10-11-------------------||---------------0-0-(0)------------|-------------------------------------|
(D) (E) (D) (E)|-------------------------------|-----------------------||-------------------------------|-----------------------||-7-----7-(7)-x-------9---9-9-9-|-7-----7-(7)---7-9-----||-7---7-7-(7)-x-------9---9-9-9-|-7-----7-(7)-7-7-9-----||-5-0-0-5p=0----------7-7-7-7-7-|-5-----5p=0--0-5-7-----||---------------0-(0)-----------|---5-5-----------------|
(D) (E)|-----------------------------------||-----------------------------------||-7-----7-(7)-7---------9-------9-x-||-7---7-7-(7)-7-7-9-(9)-9-------9-x-||-5-0-0-5p=0--0-5-7-(7)-7-0-(0)-7-x-||---------------0-0-(0)-------------|
(D) (E) E5F#5 G5A5|--------------------------------------|---------------------||---------------------9-9-10-10-9-10---|---------------------||-7-----7-(7)-------9-9-9--9--9-9--9-x-|---------------------||-7---7-7-(7)-------9-9-9-11-11-9-11-x-|-2-4-(4)--5-7-(7)-7--||-5p0-0-5p=0--10-11--------------------|-2-4-(4)--5-7-(7)-7--||--------------------------------------|-0-2-(2)--3-5-(5)-5--|
H.=H a tempo Q=92 (E(D)|--------------------------|---------||------------------------------||--------------------------|---------||------------------------------||--------------------------|---------||-9s7-7------------------------||-7-7-7-7-7-7-7-7-7-7-7-7--|---------||-9S7-7-7-(7)------------------||-7-7-7-7-7-7-7-7-7-7-7-7--|---------||-7s5-5-7-(7)------------------||-5-5-5-5-5-5-5-5-5-5-5-5--|---------||-------5p=0--0-3b4==(3)r-0----|
Interlude A5 (E) Gtr I ~~~~~|----------------------------||--------------------------------||----------------------------||o-15p12-12-15p12-12-15-15b17----||----------------------------||--------------------------------||----------------------------||--------------------------------||----------------------------||o-------------------------------||----------------------------||--------------------------------|
|
| Gtr II| ~~~~~|----------------------------||--------------------------------||----------------------------||o--3p=0--0--3p=0--0--3--3b5-----||-----------------------2----||--------------------------------||-9s7-7-7-5-------------2----||--------------------------------||-7s5-5-5-5-5-----------0----||o-------------------------------||-----------5-3b4==(3)r------||--------------------------------|
~~~~~|-------------------------------||-15p12-12-15p12-12-------------||-------------------12-14b16----||-------------------------------||-------------------------------||-------------------------------|
|
| ~~~~~|-------------------------------||--3p=0--0--3p=0--0-------------||--------------------0--2b4-----||-------------------------------||-------------------------------||-------------------------------|
~~~~~~~|--------------------------------------||-15p12-12-15-(15)--15b17r15-12--------||-------------------------------14p12--||--------------------------------------||--------------------------------------||--------------------------------------|
|
| ~~~~~~~|--------------------------------------||--3p=0--0--3--(3)---3b5r==3--0--------||--------------------------------2p=0--||--------------------------------------||--------------------------------------||--------------------------------------|
3x|--------------------------------------------|||------------------------------------9-(9)--o|||-14p13-13-14p13-13-14-14b16r(14)-13-9-(9)---|||------------------------------------9-(9)---|||-------------------------------------------o|||------------------------------------0-(0)---||
|
| 3x|--------------------------------------------|||-------------------------------------------o|||--2p=1--1--2p=1--1--2--2b4r==(2)--1-1-(1)---|||------------------------------------2-(2)---|||------------------------------------2-(2)--o|||------------------------------------0-(0)---||
(E(D) A5 Gtr II|------------------------------|------------------------------||------------------------------|------------------------------||-9s7-7-7-(7)------------------|------------------------------||-9s7-7-7-(7)-------------2----|-9s7-7-7-(7)-------------2----||-7s5-5-5-(5)-0-----------2----|-7s5-5-5-(5)-0-----------0----||---------------3b4==(3)r-0----|---------------3b4==(3)r------|
(E(D) A5 D5|------------------------------|---------------------------------||------------------------------|----------------------------3-3--||-9s7-7-7-(7)------------------|----------------------------2-2--||-9s7-7-7-(7)-------------2----|-9s7-7-7-(7)-------------2--0-0--||-7s5-5-5-(5)-0-----------2----|-7s5-5-5-(5)-0-----------0-------||---------------3b4==(3)r-0----|---------------3b4==(3)r---------|
(D) (E)|-------------------------------------||--------------------------9-10-------||-7-----7-(7)-7-9-(9)-9--9-9--9-9-9---||-7---7-7-(7)-7-9-(9)-9-11-9-11-9-9---||-5-0-0-5p=0--5-7-(7)-----------------||-------------------------------------|
(D) (E) (D) (E)|-------------------------------------|-------------------------------------||---------------------9-9-9-10-9------|-------------------9-9-10-9-9-10p9-9-||-7-----7-(7)---x-x-x-9-9-9--9-9--9-9-|-7-----7-(7)-------9-9--9-9-9--9-9-9-||-7---7-7-(7)---x-x-x-9-9-9--9-9-11-9-|-7---7-7-(7)-------9-9-11-9-9-11p9-9-||-5-0-0-5p=0--0-----------------------|-5-0-0-5p=0--10-11-------------------||-------------------------------------|-------------------------------------|
(D) (E) (D) (E)|------------------------------|-------------------------------||-----------------------9------|-------------------------------||-7-----7-(7)-----------9--9-9-|-7-7---7-(7)---9-----9-9-9-9-9-||-7---7-7-(7)-7-x-x-(x)-9--9-9-|-7-7-7-7-(7)---9-----9-9-9-9-9-||-5-0-0-5p=0--0-x-x-(x)-7--7-7-|-5-0-0-5p=0--0-7---7-7-7-7-7-7-||------------------------------|-----------------0-------------|
(D) (E) (D) (E)|-------------------------------------|----------------------------||-------------------9-9-10-9-9-10p9-9-|----------------------------||-7-----7-(7)-------9-9--9-9-9--9-9-9-|-7-----7-(7)------9-9-9-9-9-||-7---7-7-(7)-------9-9-11-9-9-11p9-9-|-7---7-7-(7)---x--9-9-9-9-9-||-5-0-0-5p=0--10-11-------------------|-5-0-0-5p=0----x--7-7-7-7-7-||-------------------------------------|-------------0-0------------|
(D) (E) (D) (E)|---------------------------------------|-------------------------------------||---------------------9-10-10-9-10-10-9-|-------------------------------------||-7-----7-(7)-------9-9--9--9-9--9--9-9-|-7-----7-(7)---x-9-(9)-9-9-9-(9)-9-9-||-7---7-7-(7)-------9-9-11-11-9-11-11-9-|-7---7-7-(7)-7-x-9-(9)-9-9-9-(9)-9-9-||-5-0-0-5p=0--10-11---------------------|-5-0-0-5p=0--0-x-7-(7)-7-7-7-(7)-7-7-||---------------------------------------|-------------------------------------|
(D) (E) (D) (E)|-----------------------------------|-----------------------------------||-----------------------------------|-----------------------------------||-7-----7-(7)-----------------------|-7-----7-(7)-----------------------||-7---7-7-(7)-----9---9-9-9-(9)-9-9-|-7---7-7-(7)-----9---9-9-9-(9)-9-9-||-5-0-0-5p=0------7---7-7-7-(7)-7-7-|-5-0-0-5p=0------7---7-7-7-(7)-7-7-||-------------0-0-0-0-0-0-0-(0)-0-0-|-------------0-0-0-0-0-0-0-(0)-0-0-|
(D) (E) (D) (E)|----------------------------|-------------------------------------||----------------------------|-------------------------------------||-7-----7-(7)------9-9-9-9-9-|-7-----7-(7)-----9-(9)-9-9-9-(9)-9-9-||-7---7-7-(7)---x--9-9-9-9-9-|-7---7-7-(7)-----9-(9)-9-9-9-(9)-9-9-||-5-0-0-5p=0----x--7-7-7-7-7-|-5-0-0-5p=0------7-(7)-7-7-7-(7)-7-7-||-------------0-0------------|-------------0-0---------------------|
(D) (E) (D) (E)|-----------------------------------------|-----------------------------------||----------------------9-9-10-10-9-10-x-x-|-----------------------------------||-7-----7-(7)--------9-9-9--9--9-9--9-x-x-|-7-----7-(7)-----------------------||-7---7-7-(7)-------11-9-9-11-11-9-11-x-x-|-7---7-7-(7)-----9---9-9-9-(9)-9-9-||-5-0-0-5p=0--10-11-----------------------|-5-0-0-5p=0------7---7-7-7-(7)-7-7-||-----------------------------------------|-------------0-0-0-0-0-0-0-(0)-0-0-|
(D) (E)|---------------------------|--------------------------------||---------------------------|-10-10-9-9-7-7----------------x-||-7-----7-(7)-7-----9---9---|-11-11-9-9-6-6-9-9---11-x-9---x-||-7---7-7-(7)-7-----9---9---|-11-11-9-9-----9-9---11-x-9---x-||-5-0-0-5p=0--5-----7---7-0-|----------------------9-x-7-----||---------------0-0---0-----|-------------------0--------5---|
|----------------------------------|-----------------------------|||-10-10-9-9----------------------x-|-10-10-9-9-------------------|||-11-11-9-9-11-11-9-9---11-x-9---x-|-11-11-9-9-11-11-9----11--9--|||-11-11-9-9-11-11-9-9---11-x-9---x-|-11-11-9-9-11-11-9-0--11--9--|||------------------------9-x-7-----|-----------------------9--7--|||---------------------0--------5---|-----------------------------||
2nd Verse (D) (E)|--------------------------------||--------------------------------||-7-----7-(7)-7---------9-x-x-9--||-7---7-7-(7)-7-7-9-(9)-9-x-x-9--||-5-0-0-5p=0--0-5-7-(7)-7-x-x-7--||---------------0-0-(0)----------|
(D) (E) E5F#5 G5A5|----------------------------------|---------------------||------------------9-9-10-9-9-10---|---------------------||-7-----7--------9-9-9--9-9-9--9---|---------------------||-7---7-7--------9-9-9-11-9-9-11---|-2-4-(4)--5-7-(7)-7--||-5-0-0-5--10h11-----------------0-|-2-4-(4)--5-7-(7)-7--||----------------------------------|-0-2-(2)--3-5-(5)-5--|
H.=H a tempo Q=92 (E)|----------------------------|---------|----------------------------||----------------------------|---------|----------------------------||----------------------------|---------|----------------------------||-7-7-7-7-7-7-7-7-7-7-7-7-7--|---------|-2p0-0----------------------||-7-7-7-7-7-7-7-7-7-7-7-7-7--|---------|-------2p0-0----------------||-5-5-5-5-5-5-5-5-5-5-5-5-5--|---------|-------------3b4==(3)r-0----|
A5 (D) (E)|----------------------------|-----------------------------------||----------------------------|-----------------------------------||-----------------------2----|-7-----7-(7)-7---9-(9)-x-9---x-9-x-||-2p0-0-----------------2----|-7---7-7-(7)-7---9-(9)-x-9---x-9-x-||-------2p0-0-----------0----|-5-0-0-5p=0--5-5-7-(7)-x-7-x-x-7-x-||-------------3b4==(3)r------|-----------------------------------|
(D) (E) (D) (E)|-------------------------------------|----------------------------------||------------------------------10-----|----------------------------------||-7-----7--------9-9-9--9--9-9--9-x-x-|-7-----7-(7)-------9-----9-----9S=||-7---7-7--------9-9-9-11-11-9-11-x-x-|-7---7-7-(7)-------9-----9-----9S=||-5-0-0-5--10-11----------------------|-5-0-0-5p=0--------7-----7-----7S=||-------------------------------------|-------------0-0-0---0-0---0-0----|
(D) (E) (D) (E)|---------------------|----------------------------------||---------------------|----------------------------------||-7-----7-----7-9-----|-7-----7-(7)-----------9-x-x-9--x-||-7-----7---7-7-9-----|-7---7-7-(7)---7-9-(9)-9-x-x-9--x-||-5-0-0-5-0-0-5-7-----|-5-0-0-5p=0----7-7-(7)-7-x-x-7--x-||---------------------|-------------5-0-0-(0)------------|
(D) (E) E5F#5 G5 A5|-------------------------------------|---------------------------||---------------------9-10-10-9-10-9--|---------------------------||-7-----7-(7)-------9-9--9--9-9--9-9--|---------------------------||-7---7-7-(7)-------9-9-11-11-9-11-9--|-2-4-(4)-----5-7-(7)-7-7-7-||-5-0-0-5p=0--10-11-------------------|-2-4-(4)-4-5-5-7-(7)-7-7-7-||-------------------------------------|-0-2-(2)-2-3-3-5-(5)-5-5-5-|
Guitar Solo H.=H a tempo Q=91 (E) Gtr I|----------------------------|---------||-------------------------------||----------------------------|---------||-----------------------------3-||----------------------------|---------||-------------------2b4r(2)-----||----------------------------|---------||-------------------------------||----------------------------|---------||-------------------------------||----------------------------|---------||-------------------------------|
|
| Gtr II|----------------------------|---------||-------------------------------||----------------------------|---------||-------------------------------||----------------------------|---------||-------------------------------||-7-7-7-7-7-7-7-7-7-7-7-7-7--|---------||-9p7-7-7-----------------------||-7-7-7-7-7-7-7-7-7-7-7-7-7--|---------||-7-7-7-5p0-0-------------------||-5-5-5-5-5-5-5-5-5-5-5-5-5--|---------||-------------3b4==(3)r--0------|
|----------------------------------------------||-(3)------------------------------------------||------2b3==(2)r(2)b3r(2)p0---------0---(0)----||-----------------------------2----------------||----------------------------------------------||----------------------------------------------|
|
|----------------------------------------------||----------------------------------------------||----------------------------------------------||--9p7-7---------7-----------------------2-----||--7-7-7---------5p=======0-0------------0-----||-----------------------------3b4==(3)r--------|
(E) A5 ~~|----------------------------------|------3---------3---------5b6--5-3-(3)-5-3-----||----------------------------------|----3---5-(5)---------5--------------------5---||-0---------------------(0)--------|-/4--------------------------------------------||---------------------------2-(2)--|-----------------------------------------------||----------------------------------|-----------------------------------------------||----------------------------------|-----------------------------------------------|
|
|----------------------------------|-----------------------------------------------||----------------------------------|-----------------------------------------------||----------------------------------|-----------------------------------------------||-9p7-7-7--------------------------|--9p7-7-7-----------------2--------------------||-7-7-7-5p0-0----------------------|--7-7-7-5p=0--0-----------0--------------------||-------------3b4==(3)r--0---------|----------------3b4==(3)r----------------------|
(D) (E)|-------3--------------------------------------------||-(5)------------------------------------------------||------------------------------9---(9)---11b13==(11)-||-------------------------9h11-----------------------||-------------------7s11-----------------------------||----------------------------------------------------|
|
|----------------------------------------------------||----------------------------------------------------||--7------7-(7)----------------9-x--x--9----------9--||--7----7-7-(7)---7-9-(9)------9-x--x--9----------9--||--5--0-0-5p=0----7-7-(7)------7-x--x--7----------7--||---------------5-0-0-(0)----------------------------|
(D) (E)|------------------------------------------12-------||---------------------------------------------14-12-||-(11)r(11)---9-11---9----9-(9)---------------------||----------------------11-------11------------------||---------------------------------------------------||---------------------------------------------------|
|
|---------------------------------------------------||----------------------------9--10-10-9-10--9-------||---7---------7-(7)-------9--9---9--9-9--9--9-------||---7-------7-7-(7)-------9--9--11-11-9-11--9-------||---5----0--0-5p=0--10-11---------------------------||---------------------------------------------------|
(D) (E)|-----------------------------------------------------------||-14-12-----------------12--14-12-14-12---(12)--------------||-------13-11b13==(11)r------------------------13-11-11b13==||-----------------------------------------------------------||-----------------------------------------------------------||-----------------------------------------------------------|
|
|-----------------------------------------------------------||-----------------------------------------------------------||--7--------7------(7)-------------9--x-x---9---9--9--------||--7-----7--7------(7)-------------9--x-x---9---9--9--------||--5--0--0--5p======0--------------7--x-x---7---7--7--------||------------------------0----------------------------------|
(D) (E)|---------------------------------------------------------------||-----------------------------------------12pb14r(12)b14==(12)--||-(11)r-11-9-----9---9----9-(9)-9-------------------------------||------------11--------11---------11----------------------------||---------------------------------------------------------------||---------------------------------------------------------------|
|
|---------------------------------------------------------------||----------------------------9--9-10-9-10--9------10--------x---||---7---------7-(7)-------x--9--9--9-9--9--9-------9--------x---||---7------7--7-(7)-------x--9--9-11-9-11--9------11--------x---||---5----0-0--5p=0--10-11---------------------------------------||---------------------------------------------------------------|
(D) (E)|-----------------------------------------------------||-(12)r---12---11b12-10-------10----------------------||-----------------------12b14----12--11-9---(9)-9-----||-------------------------------------------------11--||-----------------------------------------------------||-----------------------------------------------------|
|
|-----------------------------------------------------||-----------------------------------------------------||---7--------7-(7)-------7-----9-(9)--9---x--9-----9--||---7------7-7-(7)----7--7-----9-(9)--9---x--9-----9--||---5---0--0-5p=0-----0--5-----7-(7)--7---x--7-----7--||-----------------------------------------------------|
(D) (E)|------------------------------------------------------||-12pb14r==(12)---12---9----9-(9)-x-10--------11b12----||------------------------11----------9-----------------||------------------------------------------------------||------------------------------------------------------||------------------------------------------------------|
|
|------------------------------------------------------||---------------------------------9-10-9--9-9--9-------||--7------------7-(7)-------9-(9)-9--9-9-10-9--9-------||--7---------7--7-(7)-------9-(9)-9-11-9-11-9--9-------||--5-----0---0--5p=0--10h11-------------------------0--||------------------------------------------------------|
(D) (E)|------------------------------------------------------------------------||---11b12-----11b12-----11b12==(11)r---11b12==(11)r-----11b12==(11)r-----||-x---------x---------x--------------x---------------x---------------x-x-||------------------------------------------------------------------------||------------------------------------------------------------------------||------------------------------------------------------------------------|
|
|------------------------------------------------------------------------||------------------------------------------------------------------------||-7---------7-(7)--------------------------------------------------------||-7-------7-7-(7)--------9------(9)--9--9-------9---(9)--9-------9-------||-5--0----0-5p=0---------7------(7)--7--7-------7---(7)--7-------7-------||-------------------0-0--0------(0)--0--0-------0---(0)--0-------0-------|
(D) (E)|-------------------------12------------------------||----------------------12----15b17------------------||-9----9------9-11s=13------------------------------||---11---11-----------------------------------------||---------------------------------------------------||---------------------------------------------------|
|
|---------------------------------------------------||-----------------------------9----9-10-9-10-9-10-x-||-7---------7---(7)--------9--9----9--9-9--9-9--9-x-||-7----7----7---(7)--------9--9----9-11-9-11-9-11-x-||-5--0-0----5p===0--10-11---------------------------||---------------------------------------------------|
(D) (E)|-15------------15----------15------------------------||----15b17==========15r---------15--------------------||----------------------------------14b15==(14)r(14)---||-----------------------------------------------------||-----------------------------------------------------||-----------------------------------------------------|
|
|-----------------------------------------------------||-----------------------------------------------------||--7----------7-(7)-----7-9-(9)--9--x-------9-------9-||--7--------7-7-(7)--7--7-9-(9)--9--x-------9-------9-||--5--0-----0-5p=0---0--5-7-(7)--7--x-------7-------7-||-----------------------0-0-(0)-----------------------|
(D) (E)|-15------------15----------------------------------------------||----15b17==========15r----12----------10-----------------------||-----------------------------14b15-12----12b13==(12)r------12s=||------------------------------------------------------14-------||---------------------------------------------------------------||---------------------------------------------------------------|
|
|---------------------------------------------------------------||------------------------------9-----9-10--9------10----9-------||--7----------7-(7)---------9--9-----9--9--9-------9----9-------||--7--------7-7-(7)---------9--9-----9-11--9------11----9-------||--5--0-----0-5p=0--10--11--------------------------------0--0--||---------------------------------------------------------------|
(D) (E)|----12------------------------------------------------10-||-------15---(15)---------12-12-15-------------12---12----||-13----------------12s13----------------12s13------------||---------------------------------------------------------||---------------------------------------------------------||---------------------------------------------------------|
|
|---------------------------------------------------------||---------------------------------------------------------||--7-------7--(7)------------------9-x-x-----9----9-----9-||--7-----7-7--(7)------------------9-x-x-----9----9-----9-||--5--0--0-5p==0-------------------7-x-x-----7----7-----7-||-----------------0---------------------------------------|
(D) (E)|-(10)-------(10)-------------------------------||-----------------10b12r==(10)------------------||------------------------------9-9----9--9----9-||------------------------------------------11---||-----------------------------------------------||-----------------------------------------------|
|
|-----------------------------------------------||------------------------------------10-10--9-9-||---7------7--(7)--------------9-9-9--9--9--9-9-||---7----7-7--(7)--7-----------9-9-9--9--9--9-9-||---5--0-0-5p==0---0-----------7-7-7--7--7--7-7-||-----------------------0--(0)------------------|
(D) (E)|---------9----------------------------------------------------------||-------9---12p==9-12p=9------9-----------------------------------12-||-11b13--------------------11---11p==9-11p=9--------9-----9-11s13----||-----------------------------------------------11----11-------------||--------------------------------------------------------------------||--------------------------------------------------------------------|
|
|--------------------------------------------------------------------||--------------------------------------------10----10--9-10-----9--9-||--7-----------7---(7)------------------------9-----9--9--9-----9--9-||--7------7----7---(7)---7-------------------11----11--9-11-----9--9-||--5----0-0----5p===0----0-------------------------------------------||----------------------------------0---(0)---------------------------|
(D) (E)|-14b16========(14)r---14-12-(12)-12-10-------------12---||------------------------------------------------12------||---------------------------------------------13---------||--------------------------------------------------------||--------------------------------------------------------||--------------------------------------------------------|
|
|--------------------------------------------------------||--------------------------------------------------------||--7---------7--(7)--------9--(9)--9--9-----------9------||--7-------7-7--(7)--------9--(9)--9--9-9-(9)-----9------||--5-------0-5p==0---------7--(7)--7--7-7-(7)-----7--0---||--------5-0---------0--0---------------0-(0)------------|
|-14b16=====(14)r---14----12-10-12--------------12-||--------------------------------------------12----||------------------------------------------x-------||--------------------------------------------------||--------------------------------------------------||--------------------------------------------------|
|
|--------------------------------------------------||-10-----10---9---9------------------------------x-||-11-----11---9---9-11-11--9--9----11--x-9-------x-||-11-----11---9---9-11-11--9--9----11--x-9-------x-||-----------------------------------9--x-7----0----||--------------------------------0-----------------|
|-14b16------14b16r(14)-12---12-(12)-12s9---------------||--------------------------x--------------12-9----------||-------------------------------------------------9-----||----------------------------------------------11---11--||-------------------------------------------------------||-------------------------------------------------------|
|
|-------------------------------------------------------||-10----10-9--9--------------------------------------x--||-11----11-9--9-----11--11-9--9------11----x-9-------x--||-11----11-9--9-----11--11-9--9------11----x-9-------x--||-------------------------------------9----x-7----0-----||---------------------------------0---------------------|
|---------------------------------||--------------10-----------------||-11----9----9-11-9-9-(9)---------||----11---11----------------------||---------------------------------||---------------------------------|
|
|---------------------------------||-10-10-9--9-7--7-----------------||-11-11-9--9-6--6-9-9-----11-x-7--||-11-11-9--9------9-9-----11-x-9--||--------------------------9-x-7--||---------------------------------|
Outro (E)||--------------------------------|-------------------------------|||o-15p12-12-15p12-12-15-15b17----|-15p12-12-15p12-12-------------|||--------------------------------|-------------------12-14b16----|||--------------------------------|-------------------------------|||o-------------------------------|-------------------------------|||--------------------------------|-------------------------------|
|
||--------------------------------|-------------------------------|||o--3p=0--0--3p=0--0--3--3b5-----|--3p=0--0--3p=0--0-------------|||--------------------------------|--------------------0--2b4-----|||--------------------------------|-------------------------------|||o-------------------------------|-------------------------------|||--------------------------------|-------------------------------|
|--------------------------------------||-15p12-12-15-(15)--15b17r15-12--------||-------------------------------14p12--||--------------------------------------||--------------------------------------||--------------------------------------|
|
|--------------------------------------||--3p=0--0--3--(3)---3b5r==3--0--------||--------------------------------2p=0--||--------------------------------------||--------------------------------------||--------------------------------------|
|--------------------------------------------|||------------------------------------9-(9)--o|||-14p13-13-14p13-13-14-14b16r(14)-13-9-(9)---|||------------------------------------9-(9)---|||-------------------------------------------o|||------------------------------------0-(0)---||
|
|--------------------------------------------|||-------------------------------------------o|||--2p=1--1--2p=1--1--2--2b4r==(2)--1-1-(1)---|||------------------------------------2-(2)---|||------------------------------------2-(2)--o|||------------------------------------0-(0)---||
|-------------------------------||-15p12-12-15p12-12-15-15b17----||-------------------------------||-------------------------------||-------------------------------||-------------------------------|
|
|-------------------------------||--3p=0--0--3p=0--0--3--3b5-----||-------------------------------||-------------------------------||-------------------------------||-------------------------------|
E5F#5 G5A5|-------------------------------|---------------------------||-15p12-12-15p12-12-------------|---------------------------||-------------------12-14b16----|-4-6-(6)--7-7b9==(7)-------||-------------------------------|---------------------------||-------------------------------|---------------------------||-------------------------------|---------------------------|
|
|-------------------------------|---------------------------||--3p=0--0--3p=0--0-------------|---------------------------||--------------------0--2b4-----|---------------------------||-------------------------------|-2-4-(4)--5-7----(7)-7-7-7-||-------------------------------|-2-4-(4)--5-7----(7)-7-7-7-||-------------------------------|-0-2-(2)--3-5----(5)-5-5-5-|
H.=H 6/4|-------------------------------|-----||-------------------------------|-----||-(7)r--------------------------|-----||-------------------------------|-----||-------------------------------|-----||-------------------------------|-----|
|
|-------------------------------|-----||-------------------------------|-----||-------------------------------|-----||--7---7-7-7-7-7-7-7-7-7-7-7-7--|-----||--7---7-7-7-7-7-7-7-7-7-7-7-7--|-----||--5---5-5-5-5-5-5-5-5-5-5-5-5--|-----|
a tempo Q=92 (D) (E) E5D5 B5 A5 G5 E5 4/4 Gtr II|--------------------------|----------------------------------*||--------------------------|----------------------------------*||-7-----7-(7)---7-9-(9)----|----------------------------------*||-7---7-7-(7)-7-7-9-(9)----|-9s7-7-7s4-4-4-2-2----------------*||-5-0-0-5p=0--0-5-7-(7)----|-7s5-5-5s2-2-2-0-0-5-5-5-2-2-2-2--*||--------------------------|-------------------3-3-3-0-0-0-0--*|
Tap to rate this tab
 
# A B C D E F G H I J K L M N O P Q R S T U V W X Y Z