Led Zeppelin - The Ocean tab

                                    THE OCEAN
                           As recorded by Led Zeppelin
                     (From the 1973 Album HOUSE OF THE HOLY)

Words and Music by John Bonham, John Paul Jones, Jimmy Page & Robert Plant
Transcribed by www.mikesguitarsite.co.uk

Gtr I (E A D G B E) - 'Jimmy Page - Rhythm w/light dist'
Gtr II (E A D G B E) - 'Jimmy Page - Lead w/dist'
Gtr III (E A D G B E) - 'Jimmy Page - Rhythm overdubs w/dist'
Gtr IV (E A D G B E) - 'Jimmy Page - Rhythm overdubs w/dist'
Gtr V (E A D G B E) - 'Jimmy Page - Rhythm overdubs w/dist'
Gtr VI (E A D G B E) - 'Jimmy Page - Rhythm overdubs w/dist'

Intro Q=89 4/4 2/4 4/4 Gtr I|---|---------|-----|-----|||---|---------|-----|-----|||---|---------|-----|-----|||---|---------|-----|-----|||---|---------|-----|-----|||---|---------|-----|-----||
1.,2.,3. 4. 7/8 PM--| PM||---------------------|-----------------------||-----------------------||||o--------------------|----------------------o||-----------------------||||---------------------|-----------------------||-----------------------||||--5h7-5h7-5----------|-----5-----7---7-------||------5-----7---7------||||o-----------7--------|-5-7---5-7---4---5--7-o||--5-7---5-7---4---5----||||--------------8\-----|-----------------------||-----------------------||
Verse 1 4/4|-----------------------|----------------|-----------------------||-7-7-7-7--5-5-5-5--2---|-2-----7-7------|-7-7-7-7--5-5-5-5--2---||-5-5-5-5--5-5-5-5--2---|-2-----5-5------|-5-5-5-5--5-5-5-5--2---||-7-7-7-7--5-5-5-5--2---|-2-5s7-7-7------|-7-7-7-7--5-5-5-5--2---||-5-5-5-5--3-3-3-3--0---|-0-3s5-5-5------|-5-5-5-5--3-3-3-3--0---||---------------------3-|----------------|---------------------3-|
|----------------|-----------------------|----------------||-2-----7-7------|-7-7-7-7--5-5-5-5--2---|-2-----7-7------||-2-----5-5------|-5-5-5-5--5-5-5-5--2---|-2-----5-5------||-2-5-7-7-7------|-7-7-7-7--5-5-5-5--2---|-2-5-7-7-7------||-0-3-5-5-5------|-5-5-5-5--3-3-3-3--0---|-0-3-5-5-5------||----------------|---------------------3-|----------------|
7/8 4/4 PM------------||-----------------------|---------------||--------------------------------||-7-7-7-7--5-5-5-5--2---|-2-----7-7-----||--------------------------------||-5-5-5-5--5-5-5-5--2---|-2-----5-5-----||--------------------------------||-7-7-7-7--5-5-5-5--2---|-2-5s7-7-7-----||-5h7-5h7-5----------------------||-5-5-5-5--3-3-3-3--0---|-0-3s5-5-5-----||-----------7--------------------||---------------------3-|---------------||-------------8-x-8-8-8-8-7-7-7--|
7/8 4/4 7/8 PM--| PM PM----------| PM--| PM|----------------------|-----------------------------|----------------------||----------------------|-----------------------------|----------------------||----------------------|-----------------------------|----------------------||-----5-----7---7------|-5h7-5h7-5-------------------|-----5-----7---7------||-5-7---5-7---4---5--7-|-----------7-----------------|-5-7---5-7---4---5--7-||----------------------|-------------8-7-7-7-7-7-7-7-|----------------------|
4/4 7/8 PM----------| PM--| PM|-----------------------------|----------------------||-----------------------------|----------------------||-----------------------------|----------------------||-5h7-5h7-5-------------------|-----5-----7---7------||-----------7-----------------|-5-7---5-7---4---5--7-||-------------8-7-7-7-7-7-7-7-|----------------------|
4/4 7/8 PM----------| PM--| PM|-----------------------------|-------------------------|||-----------------------------|-------------------------|||-----------------------------|-------------------------|||-5h7-5h7-5-------------------|-----5-----7---7---------|||-----------7-----------------|-5-7---5-7---4---5--7----|||-------------8-7-7-7-7-7-7-7-|-------------------------||
Verse 2 4/4|-----------------------|-------------------|-----------------------||-7-7-7-7--5-5-5-5--2---|-2-----7-7----10\--|-7-7-7-7--5-5-5-5--2---||-5-5-5-5--5-5-5-5--2---|-2-----5-5----10\--|-5-5-5-5--5-5-5-5--2---||-7-7-7-7--5-5-5-5--2---|-2-5-7-7-7----10\--|-7-7-7-7--5-5-5-5--2---||-5-5-5-5--3-3-3-3--0---|-0-3-5-5-5---------|-5-5-5-5--3-3-3-3--0---||---------------------3-|-------------------|---------------------3-|
|-------------------|-----------------------|--------------------||-2-----7-7---------|-7-7-7-7--5-5-5-5--2---|-2-----7-7----------||-2-----5-5----10\--|-5-5-5-5--5-5-5-5--2---|-2-----5-5----10\---||-2-5s7-7-7----10\--|-7-7-7-7--5-5-5-5--2---|-2-5s7-7-7----10\---||-0-3s5-5-5---------|-5-5-5-5--3-3-3-3--0---|-0-3s5-5-5----------||-------------------|---------------------3-|--------------------|
7/8 Gtr II|-----------------------|---------------|||-----------------------|---------------|||-----------------------|---------------|||-----------------------|---------------|||-----------------------|---------------|||-----------------------|---------------||
|
| Gtr I|-----------------------|---------------|||-7-7-7-7--5-5-5-5--2---|-2-----7-7-----|||-5-5-5-5--5-5-5-5--2---|-2-----5-5-----|||-7-7-7-7--5-5-5-5--2---|-2-5s7-7-7-----|||-5-5-5-5--3-3-3-3--0---|-0-3s5-5-5-----|||---------------------3-|---------------||
Guitar Solo 4/4 ~~~ ~|--------------------------------------------||---5-----5----(5)-----(5)-------------------||---7b9---7b9==(7)-----(7)r-7pb9r(7)-5-------||--------------------------------------5-7-7-||--------------------------------------------||--------------------------------------------|
|
| PM--||--------------------------------------------||--------------------------------------------||--------------------------------------------||-5h7---5h7-----5----------------------------||------------------7-------------------------||--------------------8--8---7----------------|
7/8 4/4 ~ ~~ ~~|-----------------------8-(8)----|----------8--------------------------||---------------------8-------10-|---10-------10-10-(10)\-/19----------||-------5-(5)-----7s9------------|----------------------------/17s9s14-||-----5-------7-7----------------|-------------------------------------||-5s7----------------------------|-------------------------------------||--------------------------------|-------------------------------------|
|
|--------------------------------|-------------------------------------||--------------------------------|-------------------------------------||--------------------------------|-------------------------------------||-----5---------7-----7----------|-5h=7-5h7-5--------------------------||-5-7------5--7---4-----5------7-|-------------7-----------------------||--------------------------------|----------------8--------------------|
7/8 ~~~~~~~~|--------15-15--------------------------5-----||-15b17========15r(15)-13-------------5---8p5-||-------------------------14-(14)\-/6---------||---------------------------------------------||---------------------------------------------||---------------------------------------------|
|
|---------------------------------------------||---------------------------------------------||---------------------------------------------||------------5-------------7----------7-------||--5------7---------5---7------4--------5---7-||---------------------------------------------|
4/4 7/8 ~ ~ ~|--------------------------------------|---------------------------------||---8---8-8-----5----------------------|---------------------------5-----||---0--------------7b9r(7)p5-7-5-------|-------5-------------5-----5b6---||--------------------------------5-7-7-|-5---5---5h7-7-7-(7)---7-7-------||--------------------------------------|-5h7-----------------------------||--------------------------------------|---------------------------------|
|
|--------------------------------------|---------------------------------||--------------------------------------|---------------------------------||--------------------------------------|---------------------------------||-5h7-5h7-5----------------------------|-----5---------7-------7---------||-----------7--------------------------|-5-7-------5-7----4------5-----7-||-------------8---(8)\-----------------|---------------------------------|
4/4 ~~~~~~|------------------------8---------||---------5-5----------8---8h10-10-||---------5-5--------9-------------||---7-5s7-----7-(7)----------------||----------------------------------||----------------------------------|
|
|----------------------------------||----------------------------------||----------------------------------||-5h7-5h7-5------------------------||-----------7----------------------||-------------8-(8)\---------------|
7/8|-------15-15-------15-15-------15-15-------15-------------------15-|||-15b17-------15b17-------15b17-------15b17----15pb17r(15)-15b17----|||-------------------------------------------------------------------|||-------------------------------------------------------------------|||-------------------------------------------------------------------|||-------------------------------------------------------------------||
|
|-------------------------------------------------------------------|||-------------------------------------------------------------------|||-------------------------------------------------------------------|||-----------5--------------7-----------------7----------------------|||--5-----7-----------5--7-----------4-------------------5---------5-|||-------------------------------------------------------------------||
4/4 Gtrs III, IV|-----------------------|--------------------|-----------------------||-7-7-7-7--5-5-5-5------|---5-7-7-7----/13\--|-7-7-7-7--5-5-5-5------||-5-5-5-5--4-4-4-4--7-6-|-7-5-5-5-5----/17\--|-5-5-5-5--4-4-4-4--7-6-||-------------------5-4-|-5------------------|-------------------5-4-||-----------------------|--------------------|-----------------------||-----------------------|--------------------|-----------------------|
|
| Gtrs V, VI|-----------------------|--------------------|-----------------------||-7-7-7-7--5-5-5-5------|---5h7-7-7----/13\--|-5h7-7-7--5-5-5-5------||-7-7-7-7--5-5-5-5--7-6-|-7-5h7-7-7----/17\--|-5h7-7-7--5-5-5-5--7-6-||-------------------7-5-|-7------------------|-------------------7-5-||-----------------------|--------------------|-----------------------||-----------------------|--------------------|-----------------------|
|
| Gtr I|-----------------------|--------------------|-----------------------||-7-7-7-7--5-5-5-5--2---|-2-----7-7----------|-7-7-7-7--5-5-5-5--2---||-5-5-5-5--5-5-5-5--2---|-2-----5-5----------|-5-5-5-5--5-5-5-5--2---||-7-7-7-7--5-5-5-5--2---|-2-5s7-7-7----------|-7-7-7-7--5-5-5-5--2---||-5-5-5-5--3-3-3-3--0---|-0-3s5-5-5----------|-5-5-5-5--3-3-3-3--0---||---------------------3-|--------------------|---------------------3-|
|--------------------|-----------------------||---5-7-7-7----/13\--|-7-7-7-7--5-5-5-5------||-7-5-5-5-5----/17\--|-5-5-5-5--4-4-4-4--7-6-||-5------------------|-------------------5-4-||--------------------|-----------------------||--------------------|-----------------------|
|
|--------------------|-----------------------||---5h7-7-7----/13\--|-5h7-7-7--5-5-5-5------||-7-5h7-7-7----/17\--|-5h7-7-7--5-5-5-5--7-6-||-7------------------|-------------------7-5-||--------------------|-----------------------||--------------------|-----------------------|
|
|--------------------|-----------------------||-2-----7-7----------|-7-7-7-7--5-5-5-5--2---||-2-----5-5----------|-5-5-5-5--5-5-5-5--2---||-2-5s7-7-7----------|-7-7-7-7--5-5-5-5--2---||-0-3s5-5-5----------|-5-5-5-5--3-3-3-3--0---||--------------------|---------------------3-|
|--------------------|-----------------------||---5-7-7-7----/13\--|-7-7-7-7--5-5-5-5------||-7-5-5-5-5----/17\--|-5-5-5-5--4-4-4-4--7-6-||-5------------------|-------------------5-4-||--------------------|-----------------------||--------------------|-----------------------|
|
|--------------------|-----------------------||---5h7-7-7----/13\--|-5h7-7-7--5-5-5-5------||-7-5h7-7-7----/17\--|-5h7-7-7--5-5-5-5--7-6-||-7------------------|-------------------7-5-||--------------------|-----------------------||--------------------|-----------------------|
|
|--------------------|-----------------------||-2-----7-7----------|-7-7-7-7--5-5-5-5--2---||-2-----5-5----------|-5-5-5-5--5-5-5-5--2---||-2-5s7-7-7----------|-7-7-7-7--5-5-5-5--2---||-0-3s5-5-5----------|-5-5-5-5--3-3-3-3--0---||--------------------|---------------------3-|
Breakdown 7/8 4/4 Gtrs V, VIGtr I|---------------------||--------||---5h7-7-7-----------||--------||-7-5h7-7-7-----------||--------||-7------------7------||-5h7----||------------4---5--7-||--------||---------------------||--------|
3x|---------||----------|------|||---------||o---------|-----o|||---------||----------|------|||---------||----------|------|||---------||o---------|-----o|||---------||----------|------||
Verse 3|-----------------------|-------------------|------------------------||-7-7-7-7--5-5-5-5--2---|-2-----7-7----10\--|-7-7-7-7--5-5-5-5--2----||-5-5-5-5--5-5-5-5--2---|-2-----5-5----10\--|-5-5-5-5--5-5-5-5--2----||-7-7-7-7--5-5-5-5--2---|-2-5s7-7-7----10\--|-7-7-7-7--5-5-5-5--2----||-5-5-5-5--3-3-3-3--0---|-0-3s5-5-5---------|-5-5-5-5--3-3-3-3--0----||---------------------3-|-------------------|---------------------3--|
|-------------------|-----------------------|--------------------||-2-----7-7---------|-7-7-7-7--5-5-5-5--2---|-2-----7-7----------||-2-----5-5----10\--|-5-5-5-5--5-5-5-5--2---|-2-----5-5----10\---||-2-5s7-7-7----10\--|-7-7-7-7--5-5-5-5--2---|-2-5s7-7-7----10\---||-0-3s5-5-5---------|-5-5-5-5--3-3-3-3--0---|-0-3s5-5-5----------||-------------------|---------------------3-|--------------------|
7/8 4/4 PM----||-----------------------|---------------||----------------------------||-7-7-7-7--5-5-5-5--2---|-2-----7-7\----||----------------------------||-5-5-5-5--5-5-5-5--2---|-2-----5-5\----||----------------------------||-7-7-7-7--5-5-5-5--2---|-2-5s7-7-7\----||-5h7-5h7-5------------------||-5-5-5-5--3-3-3-3--0---|-0-3s5-5-5\----||-----------7-----------8----||---------------------3-|---------------||-------------8-8-8-8-8-8-8\-|
7/8 4/4 7/8 PM--------||----------------------|------------------------------|----------------------||----------------------|------------------------------|----------------------||----------------------|------------------------------|----------------------||-----5-----7---7------|-5h7-5h7-5--------------------|-----5-----7---7------||-5-7---5-7---4---5--7-|-----------7---x-x-x-x-x-x----|-5-7---5-7---4---5--7-||----------------------|-------------8-x-x-x-x-x-x-8\-|----------------------|
4/4 7/8 PM PM PM|----------------------------|----------------------||----------------------------|----------------------||----------------------------|----------------------||-5h7-5h7-5------------------|-----5-----7---7------||-----------7---x-x-x-x------|-5-7---5-7---4---5--7-||-------------8-x-x-x-x-8-8\-|----------------------|
4/4 PM------------||---------------------------------||---------------------------------||---------------------------------||-5h7-5h7-5-----------------------||-----------7---x-x-x-x-x-x-x-x---||-------------8-x-x-x-x-x-x-x-x---|
Outro Faster Q=126(8=s8) 7/8 4/4 Gtr II ~~~~~|----------------------||-------10-----12b14-----12---10----------------||----------------------||----10----------------------------12b13---12---||----------------------||-11--------------------------------------------||----------------------||-----------------------------------------------||----------------------||-----------------------------------------------||----------------------||-----------------------------------------------|
|
| Gtr I|----------------------||-----------------------------------------------||----------------------||--------7-7-7--7----7-7--7-7----7--7----7----7-||----------------------||--------7-7-7--7----7-7--7-7----7--7----7----7-||-----5-----7---7------||--------7-7-7--7----7-7--7-7----7--7----7----7-||-5-7---5-7---4---5--7-||-----------------------------------------------||----------------------||-----------------------------------------------|
~~~~~~|-------------------------------------------||-(12)---10--------12b14-----12-10----12----||-------------11-------------------11-------||-------------------------------------------||-------------------------------------------||-------------------------------------------|
|
|-------------------------------------------||---9--9----9--9-9-------9-9--9--9--9--9-9--||---9--9----9--9-9-------9-9--9--9--9--9-9--||---9--9----9--9-9-------9-9--9--9--9--9-9--||-------------------------------------------||-------------------------------------------|
~|---------------------------------|----------------------------------10------||-10-------10---------------------|-------------------------------10---------||-------------------11b12---------|-----11---9-----(9)\--------11------------||---------------------------------|------------------------------------------||---------------------------------|-----------------------12-----------------||---------------------------------|------------------------------------------|
|
|---------------------------------|------------------------------------------||--7-7-7-7--7-7-7-7-------7-7-7-7-|-9-9----9-9-9-9--9---9----9--------9-9--9-||--7-7-7-7--7-7-7-7-------7-7-7-7-|-9-9----9-9-9-9--9---9----9--------9-9--9-||--7-7-7-7--7-7-7-7-------7-7-7-7-|-9-9----9-9-9-9--9---9----9--------9-9--9-||---------------------------------|------------------------------------------||---------------------------------|------------------------------------------|
|-12b14-----12---10--------------------------||---------------------12b13---12---10----10--||-------------------------------------11-----||--------------------------------------------||--------------------------------------------||--------------------------------------------|
|
|--------------------------------------------||--7----7-7--7-7----7--7----7----7--7--7--7--||--5----5-5--5-5----5--5----5----5--5--5--5--||--7----7-7--7-7----7--7----7----7--7--7--7--||--------------------------------------------||--------------------------------------------|
|---------10---11-12-------------------------------||-12b13--------------12b14---12-10----12--------10-||----------------------------------11------11------||--------------------------------------------------||--------------------------------------------------||--------------------------------------------------|
|
|--------------------------------------------------||--9----9----9--9--9--9----9--9--9--9----9----9----||--9----9----9--9--9--9----9--9--9--9----9----9----||--9----9----9--9--9--9----9--9--9--9----9----9----||--------------------------------------------------||--------------------------------------------------|
~~ ~~~~~~~~|-----------------------------------------------|-----------------------------------||-12-10---(10)\---------------------------------|-----------------------------------||-----------------11b13-----11---9------11----9-|-(9)----------11b13---11---9\------||------------------------------------11----11---|-------11--------------------------||-----------------------------------------------|-----------------------------------||-----------------------------------------------|-----------------------------------|
|
|-----------------------------------------------|-----------------------------------||--7--7-7---7---7-------7-7----7---7-----7--7-7-|--9--9----9-9--9----9--9-9-9--9\---||--5--5-5---5---5-------5-5----5---5-----5--5-5-|--9--9----9-9--9----9--9-9-9--9\---||--7--7-7---7---7-------7-7----7---7-----7--7-7-|--9--9----9-9--9----9--9-9-9--9\---||-----------------------------------------------|-----------------------------------||-----------------------------------------------|-----------------------------------|
|-----------------|----------------------||-----------------|----------------------||-/6-4------------|----------------------||-------7-6-------|----------------------||------------/9-7-|-(7)------------------||-----------------|-----/9-7----(7)s21\--|
|
| ~~~~~~~~ ~|---------2-------|----------------------||----2----3-------|----------------------||----2----2---2-1-|-(1)--2-1-------------||----2--0-0---2-2-|-(2)--2-2-------------||--0-0--0-----2-2-|-(2)--2-2-------------||-------------0-0-|-(0)--0-0-------------|
|
| G|-----------------|----------------------||-----------------|----------------------||-----------------|----------------------||-----------------|----------------------||-----------------|----------------------||-----------------|----------------------|
~ ~|----------------------|-------------^10---||----------------------|-------------^10---||-4h=6-4---------------|-------------^11---||------------7-5-------|-------------^12---||------------------9-7-|-(7)---------------||----------------------|-----/9-7----------|
|
| ~~~~~~~~ ~|--------------2-------|-------------------||------2-------3-------|-------------------||------2-------2---2-1-|-(1)--2-1----------||------2-----0-0---2-2-|-(2)--2-2----------||----0-0-----0-----2-2-|-(2)--2-2----------||------------------0-0-|-(0)--0-0----------|
|
|tr III| ~ ~|----------------------|-------------------||-9h10-9---------------|-------------------||---------9h11-9-------|-------------------||-----------------11-9-|-(9)----9----------||----------------------|-----12------------||----------------------|-------------------|
~~~~~ ~~|-^10-----12b14-----------------|-------12pb14r==(12)---12---------10---||-^10---------------------------|---------------------------------------||-^11---------------------------|---------------------------------------||-^12---------------------------|---------------------------------------||-------------------------------|---------------------------------------||-------------------------------|---------------------------------------|
|
|-------------------------------|---------------------------------------||---7-7-7--7----7-7-7-7-7-7-7-7-|-9-9-9--9-----9------9--9-9-9-9-9----9-||---7-7-7--7----7-7-7-7-7-7-7-7-|-9-9-9--9-----9------9--9-9-9-9-9----9-||---7-7-7--7----7-7-7-7-7-7-7-7-|-9-9-9--9-----9------9--9-9-9-9-9----9-||-------------------------------|---------------------------------------||-------------------------------|---------------------------------------|
~~~~~~~|---------------------------------------||-12b14-----12-10-12-(12)-----10----12--||--------------------------------11-----||---------------------------------------||---------------------------------------||---------------------------------------|
|
|---------------------------------------||--7----7-7--7--7--7---7--7-7--7--7--7--||--7----7-7--7--7--7---7--7-7--7--7--7--||--7----7-7--7--7--7---7--7-7--7--7--7--||---------------------------------------||---------------------------------------|
|-----------------------------------|--------------12b14-----12---10--------||-10h12-----------------------------|-------10-------------------------10---||---------11-9----9h11---9----------|----11---------------------------------||--------------11-------------------|-12------------------------------------||-----------------------------------|---------------------------------------||-----------------------------------|---------------------------------------|
|
|-----------------------------------|---------------------------------------||--9--9-9--9-9--9----9-9---9-9-9--9-|--------7-7-7--7----7-7--7-7--7-7--7-7-||--9--9-9--9-9--9----9-9---9-9-9--9-|--------5-5-5--5----5-5--5-5--5-5--5-5-||--9--9-9--9-9--9----9-9---9-9-9--9-|--------7-7-7--7----7-7--7-7--7-7--7-7-||-----------------------------------|---------------------------------------||-----------------------------------|---------------------------------------|
|-----------------14b16-----14-12----||-------12---14-------------------12-||------------------------------------||------------------------------------||------------------------------------||------------------------------------|
|
|------------------------------------||-9-9-9--9-9----9--9----9-9--9--9--9-||-9-9-9--9-9----9--9----9-9--9--9--9-||-9-9-9--9-9----9--9----9-9--9--9--9-||------------------------------------||------------------------------------|
|-15b17-----15pb17-------------------------||----------------------15b17-----15b17-----||------------------------------------------||------------------------------------------||------------------------------------------||------------------------------------------|
|
|------------------------------------------||--7----7-7--7-----7-7--7----7-7--7----7-7-||--5----5-5--5-----5-5--5----5-5--5----5-5-||--7----7-7--7-----7-7--7----7-7--7----7-7-||------------------------------------------||------------------------------------------|
|-17-16----17-16----17-16----17-16----|-----------------||-------17-------17-------17-------17-|-----------------||-------------------------------------|-6-4-------------||-------------------------------------|------7-6--------||-------------------------------------|-----------/9-7--||-------------------------------------|-----------------|
|
| ~|-------------------------------------|--------2--------||--9--9--9--9--9--9--9--9--9--9--9--9-|---2----3--------||--9--9--9--9--9--9--9--9--9--9--9--9-|---2----2---2-1--||--9--9--9--9--9--9--9--9--9--9--9--9-|---2--0-0---2-2--||-------------------------------------|-0-0--0-----2-2--||-------------------------------------|------------0-0--|
~ ~ ~|--------------|-----------------------|---------------||--------------|-9h10---9--------------|---------------||--------------|----------11-9---------|---------------||--------------|----------------9h11-9-|-(9)----9------||-(7)----------|-----------------------|-----12--------||-----9-7------|-----------------------|---------------|
|
| ~~~ ~ ~~~~~~~~ ~|--------------|-------------2---------|---------------||--------------|------2------3---------|---------------||-(1)-2-1------|------2------2-----2-1-|-(1)--2-1------||-(2)-2-2------|------2----0-0-----2-2-|-(2)--2-2------||-(2)-2-2------|----0-0----0-------2-2-|-(2)--2-2------||-(0)-0-0------|-------------------0-0-|-(0)--0-0------|
|--------------------10h12p==10---10----------||--------------10h12--------------10-12p10-10-||-/11---11---------------------------------11s||-/12-----------------------------------------||---------------------------------------------||---------------------------------------------|
|
|---------------------------------------------||---7-7----7-7--7--7--7----7----7-----7--7--7-||---7-7----7-7--7--7--7----7----7-----7--7--7-||---7-7----7-7--7--7--7----7----7-----7--7--7-||---------------------------------------------||---------------------------------------------|
|-------------------12h14p==12---------------|-------------------10h12p==10---10-----------||-------------12-14--------------12-14-12----|-------------10-12--------------10h12p10-----||-12--------------------------------------13s|=11--------------------------------------11s=||------14------------------------------------|------12-------------------------------------||--------------------------------------------|---------------------------------------------||--------------------------------------------|---------------------------------------------|
|
|--------------------------------------------|---------------------------------------------||--9-9----9-9--9--9--9----9----9-----9--9--9-|--7-7----7-7--7--7--7----7----7-----7--7--7--||--9-9----9-9--9--9--9----9----9-----9--9--9-|--7-7----7-7--7--7--7----7----7-----7--7--7--||--9-9----9-9--9--9--9----9----9-----9--9--9-|--7-7----7-7--7--7--7----7----7-----7--7--7--||--------------------------------------------|---------------------------------------------||--------------------------------------------|---------------------------------------------|
|-------------------12h14p==12---------------|-------------------10h12p==10--------------||-------------12-14--------------12h14p12----|-------------10-12--------------10h12p10---||-13--------------------------------------13s|=11----------------------------------------||------14------------------------------------|------12---------------------------------0-||--------------------------------------------|-------------------------------------------||--------------------------------------------|-------------------------------------------|
|
|--------------------------------------------|-------------------------------------------||--9-9----9-9--9--9--9----9----9-----9--9--9-|--7-7----7-7--7--7--7----7----7-----7--7-7-||--9-9----9-9--9--9--9----9----9-----9--9--9-|--5-5----5-5--5--5--5----5----5-----5--5-5-||--9-9----9-9--9--9--9----9----9-----9--9--9-|--7-7----7-7--7--7--7----7----7-----7--7-7-||--------------------------------------------|-------------------------------------------||--------------------------------------------|-------------------------------------------|
|-----------------------12h14p==12---------------||-----------------12-14--------------12h14p12----||-/(13)--------14-----------------------------13-||---------14-------------------------------------||------------------------------------------------||------------------------------------------------|
|
|------------------------------------------------||----9--9----9--9--9--9--9----9----9-----9--9--9-||----9--9----9--9--9--9--9----9----9-----9--9--9-||----9--9----9--9--9--9--9----9----9-----9--9--9-||------------------------------------------------||------------------------------------------------|
|----------10----------10----------10----------10-||-------10----------10----------10----------10----||-12b14-------12b14-------12b14-------12b14-------||-------------------------------------------------||-------------------------------------------------||-------------------------------------------------|
|
|-------------------------------------------------||--7-----7--7--7-----7--7--7-----7--7--7-----7--7-||--5-----5--5--5-----5--5--5-----5--5--5-----5--5-||--7-----7--7--7-----7--7--7-----7--7--7-----7--7-||-------------------------------------------------||-------------------------------------------------|
~ ~|----------12------------12----------12-14b16===(14)r\--|---------------||-------12----------(12)----------12--------------------|---------------||-14b16-------14b16---------14b16-----------------------|-6-4-----------||-------------------------------------------------------|------7-6------||-------------------------------------------------------|-----------9-7-||-------------------------------------------------------|---------------|
|
| ~|-------------------------------------------------------|--------2------||--9-----9--9--9------9---9--9-----9--9--9\-------------|---2----3------||--9-----9--9--9------9---9--9-----9--9--9\-------------|---2----2--2-1-||--9-----9--9--9------9---9--9-----9--9--9\-------------|---2--0-0--2-2-||-------------------------------------------------------|-0-0--0----2-2-||-------------------------------------------------------|-----------0-0-|
~~~~~~~ ~ ~|-----------------|----------------------|---------------*||-----------------|-9h10-9---------------|---------------*||-----------------|---------11-9---------|---------------*||-----------------|---------------9h11-9-|-(9)----9------*||-(7)-------------|----------------------|-----12--------*||-----9-7--(7)----|----------------------|---------------*|
|
| ~~~ ~ ~~~~~~~~ ~|-----------------|------------2---------|---------------*||-----------------|------2-----3---------|---------------*||-(1)-2-1---------|------2-----2-----2-1-|-(1)--2-1------*||-(2)-2-2---------|------2---0-0-----2-2-|-(2)--2-2------*||-(2)-2-2---------|----0-0---0-------2-2-|-(2)--2-2------*||-(0)-0-0---------|------------------0-0-|-(0)--0-0------*|
|
| Gtr III| ~|-----------------|----------------------|---------------*||-----------------|----------------------|---------------*||-----------------|----6-4---------------|---------------*||-----------------|----------7-6---------|---------------*||-----------------|------------------9-7-|--7------------*||-----------------|----------------------|------9-7------*|
Tablature Legend ---------------- h - hammer-on p - pull-off b - bend pb - pre-bend r - bend release (if no number after the r, then release immediately) /\ - slide into or out of (from/to "nowhere") s - legato slide S - shift slide - natural harmonic [n] - artificial harmonic n(n) - tapped harmonic ~ - vibrato tr - trill T - tap TP - trem. picking PM - palm muting \n/ - tremolo bar dip; n = amount to dip \n - tremolo bar down n/ - tremolo bar up /n\ - tremolo bar inverted dip = - hold bend; also acts as connecting device for hammers/pulls <> - volume swell (louder/softer) x - on rhythm slash represents muted slash o - on rhythm slash represents single note slash Misc Legend ----------- | - bar || - double bar ||o - repeat start o|| - repeat end *| - double bar (ending) : - bar (freetime) $ - Segno & - Coda Tempo markers - = BPM(8/16=s8/s16), where s8 = swing 8ths, s16 = swing 16ths *************************************************************************************** * Generated using Power Tab Editor by Brad Larsen - http://powertab.guitarnetwork.org * ***************************************************************************************
Tap to rate this tab
 
# A B C D E F G H I J K L M N O P Q R S T U V W X Y Z