Led Zeppelin - Dazed And Confused tab

                               DAZED AND CONFUSED
                           As recorded by Led Zeppelin
                       (From the 1969 Album LED ZEPPELIN)

Words and Music by Jimmy Page
Transcribed by www.mikesguitarsite.co.uk

Gtr I (E A D G B E) - 'Jimmy Page - Rhythm w/dist'
Gtr II (E A D G B E) - 'Jimmy Page - Rhythm w/dist'
Gtr III (E A D G B E) - 'Jimmy Page - Lead w/dist & octavia one octave above'
Gtr IV (E A D G B E) - 'Jimmy Page - Lead w/dist heavy reverb & violin bow'

Intro Q.=52 12/8 Gtr I|----|-----------------|-<12>------(<12>)---(<12>)------|-<5>------(<5>)---(<5>)-------||----|------------<12>-|----------------------------<5>-|------------------------------||----|-----------------|--------------------------------|-------------------------<12>-||----|-----------------|--------------------------------|------------------------------||----|-----------------|--------------------------------|------------------------------||----|-----------------|--------------------------------|------------------------------|
|-------------------------------------------------------------------------------------|||-------------------------------------------------------------------------------------|||-(<12>)b14===(<12>)r(<12>)b14==(<12>)r(<12>)b14==(<12>)r(<12>)b14==(<12>)r=(<12>)----|||-------------------------------------------------------------------------------------|||-------------------------------------------------------------------------------------|||-------------------------------------------------------------------------------------||
Verse 1|--------<12>---(<12>)------<5>------||---<12>----------------<5>------<5>-||------------------------------------||------------------------------------||------------------------------------||------------------------------------|
|-----------------------------|------------------||-----------------------------|-<12>------<5>----||-<5>b9====(<5>)r==(<5>)------|-<12>------<5>----||-----------------------------|------------------||-----------------------------|------------------||-----------------------------|------------------|
Gtr III ~~ ~~ ~~ ~~|--------------------|-14b15---14---12b13r=(12)-12----|--------------------------------||--------------------|--------------------------------|-14b15---14---12b13r=(12)-12----||--------------------|--------------------------------|--------------------------------||--------------------|--------------------------------|--------------------------------||--------------------|--------------------------------|--------------------------------||--------------------|--------------------------------|--------------------------------|
|
| Gtr I Gtrs I, II| ~~~~~~~~~~ ~~ ~~~~~~~~~~ ~~|--------------------|--------------------------------|--------------------------------||-(<5>)--------------|--------------------------------|--------------------------------||-(<5>)--------------|--------------------------------|--------------------------------||--------------------|--4b5-----4----2b3r===(2)--2----|--------------------------------||--------------------|--------------------------------|--4b5-----4----2b3r===(2)--2----||---------------0--0-|------------------------------0-|------------------------------0-|
~~ ~~ ~~ ~~|-14b15---14---12b13r=(12)-12----|--------------------------------|||--------------------------------|-14b15---14---12b13r=(12)-12----|||--------------------------------|--------------------------------|||--------------------------------|--------------------------------|||--------------------------------|--------------------------------|||--------------------------------|--------------------------------||
|
| ~~~~~~~~~~ ~~ ~~~~~~~~~~ ~~|--------------------------------|--------------------------------|||--------------------------------|--------------------------------|||--------------------------------|--------------------------------|||--4b5-----4----2b3r===(2)--2----|--------------------------------|||--------------------------------|--4b5-----4----2b3r===(2)--2----|||------------------------------0-|------------------------------0-||
Verse 2 Gtr I ~~~~~~~~~~~~~~~~~~ ~~~~~~~~ ~|----------------------|-------------------------||----------------------|-------------------------||----------------------|-------------------------||-4b5---4---2b3---2----|-------------------------||----------------------|-4b5---4---2b3r=(2)-2----||--------------------0-|-----------------------0-|
9/8 ~~~~~~~~~~~~~~~~~~ ~~~~~~~~|----------------------|---------------------||----------------------|---------------------||----------------------|---------------------||-4b5---4---2b3---2----|---------------------||----------------------|-4b5---4---2b3r=(2)--||--------------------0-|---------------------|
12/8 Gtr III|-------------------------------------------------------||-------------------------------------------------------||----------------14-16----------------------14-16-------||-16-16-16-14-16-------14-16-16-16-16-14-16-------14-16-||-14-14-14-------------------14-14-14-------------------||-------------------------------------------------------|
|
| Gtrs I, II|-------------------------------------------------------||-------------------------------------------------------||-----------------2--4-----------------------2--4-------||--4--4--4--2--4--------2--4--4--4--4--2--4--------2--4-||--2--2--2--------------------2--2--2-------------------||-------------------------------------------------------|
|-------------------------------------------------------||-------------------------------------------------------||----------------14-16----------------------14-16-------||-16-16-16-14-16-------14-16-16-16-16-14-16-------14-16-||-14-14-14-------------------14-14-14-------------------||-------------------------------------------------------|
|
|-------------------------------------------------------||-------------------------------------------------------||-----------------2--4-----------------------2--4-------||--4--4--4--2--4--------2--4--4--4--4--2--4--------2--4-||--2--2--2--------------------2--2--2-------------------||-------------------------------------------------------|
~~ ~~ ~~|------14b15---14---12b13===(12)r(12)-|-12-----------------------------||-------------------------------------|-------14b15---14---12b13r=(12)-||-------------------------------------|--------------------------------||-------------------------------------|--------------------------------||-------------------------------------|--------------------------------||-------------------------------------|--------------------------------|
|
| ~~~~~~~~~~~~~~~~~~~~~~~~~~~~~~~~~~~ ~~~~~~~~~~|-------------------------------------|--------------------------------||-------------------------------------|--------------------------------||-------------------------------------|--------------------------------||-------4b5-----4----2b3--------------|--2-----------------------------||-------------------------------------|--------4b5-----4----2b3r===(2)-||-0--0--------------------------------|-----0--------------------------|
~~ ~~ ~~|-------14b15---14---12b13r=(12)-|-12-----------------------------------|||-12-----------------------------|-------14b15r=(14)-14---12b13r=(12)---|||--------------------------------|--------------------------------------|||--------------------------------|--------------------------------------|||--------------------------------|--------------------------------------|||--------------------------------|--------------------------------------||
|
| ~~ ~~~~~~~~~~~~~~~~~~~~~~~~~~~~~ ~~~~~~~~~~~~~~|--------------------------------|--------------------------------------|||--------------------------------|--------------------------------------|||--------------------------------|--------------------------------------|||--------4b5-----4----2b3--------|--2-----------------------------------|||--2-----------------------------|--------4b5---------4----2b3r===(2)---|||-----0--------------------------|-----0--------------------------------||
Verse 3 ~~ ~~|-------14b15---14---12b13r=(12)-||-12-----------------------------||--------------------------------||--------------------------------||--------------------------------||--------------------------------|
|
| ~~~~~~~~~~~~~~~~~~~~~~~~~|--------------------------------||--------------------------------||--------------------------------||--------4b5-----4----2b3--------||--2-----------------------------||-----0--------------------------|
~~ ~~ ~~ ~~|-12---------------------------------|-------14b15---14---12b13r=(12)--||-------14b15r=(14)-14---12b13r=(12)-|-12------------------------------||------------------------------------|---------------------------------||------------------------------------|---------------------------------||------------------------------------|---------------------------------||------------------------------------|---------------------------------|
|
|~~~~ ~~~~~~~~~~~~~~ ~~~~~~~~ ~~~~~~~~~~~~~~~~~~~|------------------------------------|---------------------------------||------------------------------------|---------------------------------||------------------------------------|---------------------------------||--2---------------------------------|--------4b5-----4----2b3---------||--------4b5---------4----2b3r===(2)-|--2------------------------------||-----0------------------------------|-----0---------------------------|
~~ ~~|-12-----------------------------|------------------------------------------------------||-------14b15---14---12b13r=(12)-|------------------------------------------------------||--------------------------------|----------------14-16-------4-------------14-16-------||--------------------------------|-16-16-16-14-16-------14-16-4-16-16-14-16-------14-16-||--------------------------------|-14-14-14-------------------2-14-14-------------------||--------------------------------|------------------------------------------------------|
|
| ~~|--------------------------------|------------------------------------------------------||--------------------------------|------------------------------------------------------||--------------------------------|-----------------2--4----------------------2--4-------||--2-----------------------------|--4--4--4--2--4--------2--4-4--4--4--2--4--------2--4-||--------4b5-----4----2b3r===(2)-|--2--2--2-------------------2--2--2-------------------||-----0--------------------------|------------------------------------------------------|
|------------------------------------------------------|||------------------------------------------------------|||----------------14-16-------4-------------14-16-------|||-16-16-16-14-16-------14-16-4-16-16-14-16-------14-16-|||-14-14-14-------------------2-14-14-------------------|||------------------------------------------------------||
|
|------------------------------------------------------|||------------------------------------------------------|||-----------------2--4----------------------2--4-------|||--4--4--4--2--4--------2--4-4--4--4--2--4--------2--4-|||--2--2--2-------------------2--2--2-------------------|||------------------------------------------------------||
Interlude Gtr I|-------------------------------|-----------------|--------------------||-------------------------------|-----------------|--------------------||-------------------------------|-----------------|--------------------||-2-2-2-2-0----12-12-12-12------|-----------------|--------------------||-2-2-2-2-0----10-10-10-10-7----|-----------------|--------------------||--------------------------0----|-----------------|--------------------|
|
| Gtr II| < < < <|-------------------------------|-----------------|--------------------||-------------------------------|-----------------|--------------------||-------------------------------|-----------------|--------------------||-4-----------------------------|-----------------|--------------------||-2p0---------------------------|-----------------|--------------------||---------------3s=========0----|-3s=0----3s=0----|-7s=10-----(7)------|
Gtr II < ~~|-----------------------|----------------------------------------||-----------------------|----------------------------------------||-----------------------|----------------------------------------||-----------------------|----------------------------------------||-----------------------|----------------------------------------||-7s=10----------12b14==|=(12)r(12)p10-12p10-(10)---------12b14==|
~~|-------------------------------||-------------------------------||-------------------------------||-------------------------------||-------------------------------||-(12)r(12)p10-12p10-(10)-------|
|---------------------||---------------------||---------------------||---------------------||---------------------||-5b7====(5)r---------|
|
| Gtr IV|---------------------||---------------------||---------------------||---------------------||---------------------||-5b7====(5)r---------|
<|-----------------------------------------------------------------------------------------------------------------------||-----------------------------------------------------------------------------------------------------------------------||-----------------------------------------------------------------------------------------------------------------------||-----------------------------------------------------------------------------------------------------------------------||-----------------------------------------------------------------------------------------------------------------------||--3s=====0-------------------------------------------------------------------------------------------------------------|
|
|-12b13=================================================================================================================||-----------------------------------------------------------------------------------------------------------------------||-----------------------------------------------------------------------------------------------------------------------||-----------------------------------------------------------------------------------------------------------------------||-----------------------------------------------------------------------------------------------------------------------||-----------9b10==(9)r(9)b10==(9)r(9)b10==(9)r(9)b10==(9)r(9)b10==(9)r(9)b10==(9)r(9)b10==(9)r(9)b10==(9)r(9)b10==(9)r--|
|---------------------------------------------------------------------------------------------------------------||---------------------------------------------------------------------------------------------------------------||---------------------------------------------------------------------------------------------------------------||---------------------------------------------------------------------------------------------------------------||---------------------------------------------------------------------------------------------------------------||-8b9==(8)b10==(8)-(8)r(8)b9==(8)r(8)b9==(8)r(8)b9==(8)r(8)b9==(8)r(8)b9==(8)r(8)b9==(8)r(8)b9==(8)r(8)b9==(8)r-|
|
|---------------------------------------------------------------------------------------------------------------||---------------------------------------------------------------------------------------------------------------||---------------------------------------------------------------------------------------------------------------||---------------------------------------------------------------------------------------------------------------||---------------------------------------------------------------------------------------------------------------||---------------------------------------------------------------------------------------------------------------|
|-----------------------------------------------------------------------------------------------------||-----------------------------------------------------------------------------------------------------||-----------------------------------------------------------------------------------------------------||-----------------------------------------------------------------------------------------------------||-----------------------------------------------------------------------------------------------------||----14b15==(14)r(14)b15==(14)r(14)b15==(14)r(14)b15==(14)r===(14)b15==(14)r(14)b15==(14)-(14)r(14)---|
|
| TP TP TP TP TP TP|-10--------------10---------------------12----------------10-------------------------10--------------||--7---------------7---------------------10-----------------7--------------------------7--------------||-----------------------------------------------------------------------------------------------------||-----------------------------------------------------------------------------------------------------||-----------------------------------------------------------------------------------------------------||-----------------------------------------------------------------------------------------------------|
|-------------------------|------------------------|------------------||-------------------------|------------------------|------------------||-------------------------|------------------------|------------------||-------------------------|------------------------|------------------||-------------------------|------------------------|------------------||-(14)\---------14--------|-(14)-------------------|-(14)-------------|
|
| TP TP TP TPTP TP TP TP TP TP TP TP TP TP TP|--10----7-10---10-7--5---|---7-------9-10-10--10--|---6--7--7---7----||---7----5--7----7-5--3---|---5-------7--7--7---7--|---4--5--5---7----||-------------------------|------------------------|------------------||-------------------------|------------------------|------------------||-------------------------|------------------------|------------------||-------------------------|------------------------|------------------|
TP TP TP TP|-----------------------|------------------------|-------||-----------------------|------------------------|-------||-----------------------|------------------------|-------||-----------------------|------------------------|-------||-----------------------|------------------------|-------||-(14)------------------|-12--------(12)p==10\---|-8\----|
|
| TP TPTPTPTPTP TP TP TP TP|--10-------10-7-9-9-7--|-12---12S===10S=========|=5S====||---7--------7-7-5-5-5--|-12---12S===10S=========|=5S====||-----------------------|-13---13S===11S=========|=6S====||-----------------------|-14---14S===12S=========|=7S====||-----------------------|------------------------|-------||-----------------------|------------------------|-------|
Faster Q=188 6/8 4/4 TP TP|--------------|--------------|-----------------|-------------|||--------------|--------------|-----------------|-------------|||--------------|--------------|-----------------|-------------|||--------------|--------------|-----------------|-------------|||--------------|--------------|-----------------|-------------|||-1------------|-1------------|-0----(0)-0b1====|=(0)r=(0)----||
|
| TP TP TP TP TP|-1------------|-1------------|-1--0--0-------0-|-(0)---------|||-1------------|-1------------|-1--0--0-------0-|-(0)---------|||-2------------|-2------------|-2--1--1-------1-|-(1)---------|||-3------------|-3------------|-3--2--2-------2-|-(2)---------|||--------------|--------------|-----------------|-------------|||--------------|--------------|-----------------|-------------||
Bridge Gtr I|------------|------------|---------|------------||------------|------------|---------|------------||------------|------------|---------|------------||------------|------------|---------|------------||------------|------------|---------|------------||-(0)--------|-(0)--------|---------|------(0)---|
~~|----------------------------|-----------------------||----------------------------|-----------------------||----------------12h14-12----|-------------12-14-12--||----------12-14----------14-|-------12-14-----------||-12s14-14-------------------|-12-14-----------------||----------------------------|-----------------------|
Gtrs I, II|-------------------------|----------------------------||-------------------------|---------------------15-----||-------------12-14-12----|-------------12-14---17b19==||-------12-14-------------|-------12-14-------0--------||-12-14----------------14-|-12-14----------------------||-------------------------|----------------------------|
~~~~~|--------------------|---------------------||-(15)--------14-----|-(14)---------12-----||-(17)r-------16b18==|=(16)r--------14b16==||--------------------|------------0--------||--------------------|---------------------||--------------------|---------------------|
~~~~~ ~~~~~|--------------------|--------------------|------------------||-(12)--------10-----|-(10)---------8-----|--(8)-----7-------||-(14)r-------12b14==|=(12)r-------10b12==|=(10)r----9b11----||--------------------|--------------------|------------------||--------------------|--------------------|------------------||--------------------|--------------------|------------------|
Gtr I ~~~ ~~~~~~~~~~~~~~~~~~|------------|-------------------|------------|-------------|----------------|||-5----------|--8-------7\-------|-3----------|-2-----------|-(2)------------|||-7b9--------|-10b12----9b11\----|-5b7--------|-4b6=========|=(4)r-----------|||------------|-------------------|------------|-------------|----------------|||------------|-------------------|------------|-------------|----------------|||------------|-------------------|------------|-------------|---------/x\----||
Guitar Solo|--------------------------------------------------||-12----12-15-12-----------------12-15p12----12----||-14b16----------14-14b16==(14)r----------14-14b16-||--------------------------------------------------||--------------------------------------------------||--------------------------------------------------|
|----------------------------------|-15p12----15p12----15p12----15p12----15p12--||-12-15-12----------12-15-12----12-|-------12-------12-------12-------12--------||----------14-14b16----------12----|--------------------------------------------||----------------------------------|--------------------------------------------||----------------------------------|--------------------------------------------||----------------------------------|--------------------------------------------|
|----------15b17-15-12----12-------|---------------------------------------------||-12-12-12-------------15-15p12----|-----------------------------------15--------||-------------------------------14p|=12----12-14-12-14-12-14b16==(14)r----14b16==||----------------------------------|----14---------------------------------------||----------------------------------|---------------------------------------------||----------------------------------|---------------------------------------------|
|--------------------------------------||--------------------------------------||-(14)rp12-14p12-----------------------||----------------14-14-12h14p12----12--||-------------------------------14-----||--------------------------------------|
~~~~~~~|----------------------------------|------------------------||----------------------------------|------------------------||------------------[9]b11==([9])r--|-9b11---7-9-7-7-5-6-6-5-||-14p12-(12)--(0)------------------|------------------------||----------------------------------|------------------------||----------------------------------|------------------------|
|---------------------------|---------------||---------------------------|---------------||-6-7-6-5-6-6-3-4-2-2-4-2-2-|-0-0-2--0-2--0-||---------------------------|---------------||---------------------------|---------------||---------------------------|---------------|
~~~~~~~~~~~~|-----------------------|-------------------||-----------------------|-------------------||-2-0-2-0-0pb1r(0)-0b4==|=(0)r-----0-0pb2r0-||-----------------------|-------------------||-----------------------|-------------------||-----------------------|-------------------|
~~~ ~~~~~|-----------------|--------------------------||-----------------|--------------------------||-0b4-----0-0pb2--|-0-0pb3--0-0pb3--0-0pb4===||-----------------|--------------------------||-----------------|--------------------------||-----------------|--------------------------|
~~~~|----------------15p12-|----15p12----15p12----15p12----15p12-||-------------12-------|-12-------12-------12-------12-------||-(0)r=(0)-------------|-------------------------------------||----------------------|-------------------------------------||----------------------|-------------------------------------||----------------------|-------------------------------------|
~~~~~|---------15--15b17==(15)r-15-15pb17-|-15b17-------15b17-||-x-12-12----------------------------|-------------------||------------------------------------|-------------------||------------------------------------|-------------------||------------------------------------|-------------------||------------------------------------|-------------------|
|-15-12----12-------------------|----------------------------------------------------||-------15----15p12-------------|--------------------15------------------------------||-------------------14p12----12-|-14-12-14b16==(14)r----14b16==(14)r(14)p12-14p12----||-------------------------14----|-------------------------------------------------14-||-------------------------------|----------------------------------------------------||-------------------------------|----------------------------------------------------|
|----------------------------------||----------------------------------||----------------------------------||-12h14-12-------------------------||----------14-14p12h14s12p10----10-||----------------------------12----|
~~|-------------------|-------------------------------||------------17b20==|=(17)r----17b19-17pb20--17b20==||-------------------|-------------------------------||-------------------|-------------------------------||-12-10-------------|-------------------------------||-------------------|-------------------------------|
~~|---------------------19b21==|=(19)r-19-17-------------------||-(17)r-15-15---17-17--------|-------------20-20p17----17-20-||----------------------------|----------------------19-------||----------------------------|-------------------------------||----------------------------|-------------------------------||----------------------------|-------------------------------|
|-------------------------------------|----------------------------------------||-17h20p17----17-20-17h20p17----17-20-|-17h20p17-17-20-17h20p17----17-20b20.5==||----------19----------------19-------|-------------------------19-------------||-------------------------------------|----------------------------------------||-------------------------------------|----------------------------------------||-------------------------------------|----------------------------------------|
~~~~~|---------------------------------------|-------------------------||-(20)r-20b22--20-20pb22--20pb21-20b22==|=(20)r----------20b24====||---------------------------------------|-------------------------||---------------------------------------|------------(0)----------||---------------------------------------|-------------------------||---------------------------------------|-------------------------|
~~ ~~|----------------------------|----------------------19b22==||-(20)r=(20)-17-17-17-20b23==|=(20)r=(20)-17-17-17---------||----------------------------|-----------------------------||----------------------------|-----------------------------||----------------------------|-----------------------------||----------------------------|-----------------------------|
|-(19)r=(19)-----------19b22==||------------17-17-17---------||-----------------------------||-----------------------------||-----------------------------||-----------------------------|
|-(19)r=(19)------------------||------------17-17--17-20b23==||-----------------------------||-----------------------------||-----------------------------||-----------------------------|
Gtrs I, III ~~ ~~|------------------------------|------------------------------||-(20)r=(20)-17-17--(0)-17b20==|=(17)r=(17)-15-15--15--15b17==||-------------------(0)--------|------------------------------||------------------------------|------------------------------||------------------------------|------------------------------||------------------------------|------------------------------|
~~ ~|-----------------------------|-----------------||-(15)r=(15)------------------|-----------------||------------12-12--11-12b14==|=(12)r---9-9--9--||-----------------------------|-----------------||-----------------------------|-----------------||-----------------------------|-----------------|
~ ~|----------------------|--------------||----------------------|--------------||-9b12===9r(9)-7-------|-6b8s==4-4----||------------------(0)-|--------------||----------------------|--------------||----------------------|--------------|
|-------------------|-------------------||-------------------|-------------------||-4p2p0-2--4p2p0-2--|-4p2p0-2--4p2p0-2--||-------------------|-------------------||-------------------|-------------------||-------------------|-------------------|
|---------------------|-----------------------||---------------------|-----------------------||-2-4--2-<4>--2-4p2p0-|-0-2p0h2p0-------------||---------------------|-----------4p2p0-------||---------------------|-----------------4p2p0-||---------------------|-----------------------|
Gtr I|-----------|----------------|------------|-------------------|-------------||-9-------7-|-(7)-5---(5)----|------------|-------------------|---------7---||-9-------7-|-(7)------------|------------|-------------------|-9-------7---||-9-------7-|-(7)-7---(7)----|-9-------12-|-(12)-------(12)-9-|-9-------7---||-7-------5-|-(5)------------|-7-------10-|-(10)-------(10)-7-|-7-------5---||-0---------|-----5---(5)----|-0--------0-|--(0)--------(0)---|-0-----------|
|----------------|------------|--------------|-----------||-(7)-5---(5)----|------------|--------------|---------7-||-(7)------------|------------|--------------|-9-------7-||-(7)-7---(7)----|-9-------12-|-(12)-------9-|-9-------7-||-(5)------------|-7-------10-|-(10)-------7-|-7-------5-||-----5---(5)----|-0--------0-|--(0)---------|-0---------|
|----------------|------------|-------------|||-(7)-5---(5)----|-0----------|-------------|||-(7)------------|-9-------12-|-(12)--------|||-(7)-7---(7)----|-9-------12-|-(12)--------|||-(5)------------|-7-------10-|-(10)--------|||-----5---(5)----|-0--------0-|--(0)--------||
A Tempo Q.=52 12/8 Gtr III|------------------------------------------------------||------------------------------------------------------||----------------14-16-------4-------------14-16-------||-16-16-16-14-16-------14-16-4-16-16-14-16-------14-16-||-14-14-14-------------------2-14-14-------------------||------------------------------------------------------|
|
| Gtrs I, II|------------------------------------------------------||------------------------------------------------------||-----------------2--4----------------------2--4-------||--4--4--4--2--4--------2--4-4--4--4--2--4--------2--4-||--2--2--2-------------------2--2--2-------------------||------------------------------------------------------|
|------------------------------------------------------|||------------------------------------------------------|||----------------14-16-------4-------------14-16-------|||-16-16-16-14-16-------14-16-4-16-16-14-16-------14-16-|||-14-14-14-------------------2-14-14-------------------|||------------------------------------------------------||
|
|------------------------------------------------------|||------------------------------------------------------|||-----------------2--4----------------------2--4-------|||--4--4--4--2--4--------2--4-4--4--4--2--4--------2--4-|||--2--2--2-------------------2--2--2-------------------|||------------------------------------------------------||
~~ ~~|------14b15---14---12b13---|-12-----------------------------||---------------------------|-------14b15---14---12b13r=(12)-||---------------------------|--------------------------------||---------------------------|--------------------------------||---------------------------|--------------------------------||---------------------------|--------------------------------|
|
| ~~~~~~~~~~~~~~~~~~~~~~~~~ ~~~~~~~~~~ ~~~~|---------------------------|--------------------------------||---------------------------|--------------------------------||---------------------------|--------------------------------||-------4b5-----4----2b3----|--2-----------------------------||-2-------------------------|--------4b5-----4----2b3r===(2)-||-0--0----------------------|-----0--------------------------|
~~ ~~ ~~~ ~~|-------14b15---14---12b13r=(12)-|-12-------------------------------------|||-12-----------------------------|--------14b15r=(14)-14---12b13r=(12)----|||--------------------------------|----------------------------------------|||--------------------------------|----------------------------------------|||--------------------------------|----------------------------------------|||--------------------------------|----------------------------------------||
|
|~~~~ ~~~~~~~~~~~~~~~~~~~ ~~~|--------------------------------|----------------------------------------|||--------------------------------|----------------------------------------|||--------------------------------|----------------------------------------|||--------------------------------|----------------------------------------|||--2-----9b10----9----7b8r===(7)-|--7\-----4b5---------4----2b3r===(2)----|||-----0--------------------------|------0---------------------------------||
Verse 4|------------------------------------------------|--------------------------------------------------||-12\--------------------------------------------|--------------------------------------------------||------------------------------------------------|--------------------------------------------------||------------------------------------------------|--------------------------------------------------||------------------------------------------------|--------------------------------------------------||------------------------------------------------|--------------------------------------------------|
|
| Gtr I Gtrs I, II| ~~~ ~ ~~~~~~~~|------------------------------------------------|--------------------------------------------------||------------------------------------------------|--------------------------------------------------||------------------------------------------------|--------------------------------------------------||--------4b5r=(4)-4---2b3==(2)r(2)b3==(2)r(2)b4==|=(2)r----4b5---4----------------------------------||--2---------------------------------------------|-------0-----------2b3==(2)r(2)b3==(2)r(2)b4==(2)r||------0-----------------------------------------|--------------------------------------------------|
|------------------------------------------|--------------------------||------------------------------------------|--------------------------||------------------------------------------|--------------------------||------------------------------------------|--------------------------||------------------------------------------|--------------------------||------------------------------------------|--------------------------|
|
| ~~~~~~~~ ~ ~~~|------------------------------------------|--------------------------||------------------------------------------|--------------------------||------------------------------------------|--------------------------||--------4b5---4---2b3==(2)r(2)b3==(2)r(2)-|-2------------------------||-(2)--------------------------------------|------4b5---4---2b3r=(2)--||------0-----------------------------------|----0---------------------|
|------------------------------------------------------||------------------------------------------------------||----------------14-16-------4-------------14-16-------||-16-16-16-14-16-------14-16-4-16-16-14-16-------14-16-||-14-14-14-------------------2-14-14-------------------||------------------------------------------------------|
|
|------------------------------------------------------||------------------------------------------------------||--4--4--4--------2--4----------------------2--4-------||--4--4--4--2--4--------2--4-4--4--4--4--2--------2--4-||--2--2--2-------------------2--2--2-------------------||------------------------------------------------------|
|--------------------------------------------------------|||--------------------------------------------------------|||----------------14-16-------4-------------14-16---------|||-16-16-16-14-16-------14-16-4-16-16-14-16-------14-16---|||-14-14-14-------------------2-14-14---------------------|||--------------------------------------------------------||
|
|--------------------------------------------------------|||--------------------------------------------------------|||-----------------2--4----------------------2--4---------|||--4--4--4--2--4--------2--4-4--4--4--2--4--------2--4---|||--2--2--2-------------------2--2--2---------------------|||--------------------------------------------------------||
Outro Gtr I|---------------------------|--------------------------------||---------------------------|--------------------------------||---------------------------|--------------------------------||-2-2-2-2-0----7-7-7-7-5----|-9-9-9-9-7----12-12-12-12-9\----||-2-2-2-2-0----x-x-x-x-x----|-x-x-x-x-x-----x--x--x--x-x-----||--------------5-5-5-5-3----|-7-7-7-7-5----10-10-10-10-7\----|
PM--------------------------------------||--------------------------------------------------------||--------------------------------------------------------||-9-9-9-9-7-7-7-7-7-7p6p5-7-7-7-7-7p6p5-7-7-7-7-7p6p5----||-x-x-x-x-x-0-0-0-0-0-----0-0-0-0-0-----0-0-0-0-0--------||-7-7-7-7-5----------------------------------------------||--------------------------------------------------------|
PM---------------------------------------------------------|-----------------------------------------------------------||-----------------------------------------------------------||-7-7-7-7-7p6p5-7-7-7-7-7p6p5-(5)-7-7-7-7p6p5-7-7-7-7-7p6p5-||-0-0-0-0-0-----0-0-0-0-0------0--0-0-0-0-----0-0-0-0-0-----||-----------------------------------------------------------||-----------------------------------------------------------|
Gtrs I, II ---------------------------||--------------------------------------------------||--------------------------------------------------||-7-7-7-7-7p6p5-7-7-7-7-7p6p5----7-7-7-7-7-7-7-7-7-||-0-0-0-0-0-----0-0-0-0-0--------x-x-x-x-x-x-x-x-x-||------------------------------0-5-5-5-5-5-5-5-5-5-||--------------------------------------------------|
|------------------------------------------|----------------------------*||-----------7-7-7-7-7--7-7-7-7-7-7-7-7-7-7-|-7-7-7-7-7------------------*||-7-7-7-7-7-7-7-7-7-7--7-7-7-7-7-7-7-7-7-7-|-7-7-7-7-7-7-7-7-9-9-(9)----*||-7-7-7-7-7-7-7-7-7-7--7-7-7-7-7-7-7-7-7-7-|-7-7-7-7-7-7-7-7-9-9-(9)----*||-5-5-5-5-5-5-5-5-5-5--5-5-5-5-5-5-5-5-5-5-|-5-5-5-5-5-5-5-5-7-7-(7)----*||------------------------------------------|-------------------0-(0)----*|
Tablature Legend ---------------- h - hammer-on p - pull-off b - bend pb - pre-bend r - bend release (if no number after the r, then release immediately) /\ - slide into or out of (from/to "nowhere") s - legato slide S - shift slide - natural harmonic [n] - artificial harmonic n(n) - tapped harmonic ~ - vibrato tr - trill T - tap TP - trem. picking PM - palm muting \n/ - tremolo bar dip; n = amount to dip \n - tremolo bar down n/ - tremolo bar up /n\ - tremolo bar inverted dip = - hold bend; also acts as connecting device for hammers/pulls <> - volume swell (louder/softer) x - on rhythm slash represents muted slash o - on rhythm slash represents single note slash Misc Legend ----------- | - bar || - double bar ||o - repeat start o|| - repeat end *| - double bar (ending) : - bar (freetime) $ - Segno & - Coda Tempo markers - = BPM(8/16=s8/s16), where s8 = swing 8ths, s16 = swing 16ths *************************************************************************************** * Generated using Power Tab Editor by Brad Larsen - http://powertab.guitarnetwork.org * ***************************************************************************************
Tap to rate this tab
 
# A B C D E F G H I J K L M N O P Q R S T U V W X Y Z