Led Zeppelin - Stairway To Heaven Live At Madison Square Gardens tab

Led Zeppelin - Stairway to Heaven (TSRTS)
Live at Madison Square Gardens, Jimmy Page's Les Paul Duel Neck guitar

ledzeppelin842002@yahoo.com -comments


I think This is a Song of Hope...

E-5-----5-7-----7-|-8-----8/2-----2-|-0---------5-3-1h3p1-|------------------|B-----5-----5-----|---5-------3-----|---1---1-------------|0-1-1-------------|G---5---------5---|-----5-------2---|-----2-----5-3-2-----|0-2-2-------------|D-7-------6-------|-5-------4-------|-3-------------------|----2-------------|A-----------------|-----------------|---------------------|2-0-0-----0/8-7---|E-----------------|-----------------|---------------------|------------------|
|---------7-----7-|-8-----8/2-----2-|-0---------5-3-1h3p1p0-|-----------------||-------5---5-----|---5-------3-----|---1---1---------------|-0-1-1-----------||-----5-------5---|-----5-------2---|-----2-----5-3-2-------|-0-2-2-----------||---7-----6-------|-5-------4-------|-3---------------------|-----2-----------||-0---------------|-----------------|-----------------------|-2-0-0-------0-2-||-----------------|-----------------|-----------------------|-----------------|
|-------0--2-----2-|-0-----0------------|-------0--3------3-3p2--------------------||-1---1------3-----|---1------0h1-------|-1---1------0-----------------------------||---0----------2---|-----2--------2-----|---0----------0--------0-2-0h2p0----------||----------0-------|-3------------------|-------------------0-------------4--------||-3----------------|----------0-----0-2-|-3------------------------------------0-2-||------------------|--------------------|----------3-------------------------------|
|-------0-2-----2-|-0-----0------------|-------0--2-----2-|------------------------||-1---1-----3-----|---1------0h1-------|-1---1------3-----|-1-0-1--3p1p0--3p1p0--1-||---0---------2---|-----2--------2-----|---0----------2---|------------------------||---------0-------|-3------------------|----------0-------|-3-3--------------------||-3---------------|----------0-----0-2-|-3----------------|------------------------||-----------------|--------------------|------------------|------------------------|{End Intro}
|-5-----5-7-----7-|-8-----8/2-----2-|-0---------5-3-1h3p1-|------------------||---5-------5-----|---5-------3-----|---1---1-------------|0-1-1-------------||-----5-------5---|-----5-------2---|-----2-----5-3-2-----|0-2-2-------------||-7-------6-------|-5-------4-------|-3-------------------|----2-------------||-----------------|-----------------|---------------------|2-0-0-----0/8-7---||-----------------|-----------------|---------------------|------------------|
|---------7-----7-|-8-----8/2-----2-|-0---------5-3-1h3p1p0-|----------------||-------5---5-----|---5-------3-----|---1---1---------------|-0-1-1----------||-----5-------5---|-----5-------2---|-----2-----5-3-2-------|-0-2-2----------||---7-----6-------|-5-------4-------|-3---------------------|-----2----------||-0---------------|-----------------|-----------------------|-2-0-0------0-2-||-----------------|-----------------|-----------------------|----------------|
|-------0--2-----2-|-0-----0------------|-------0--3------3-3p2--------------------||-1---1------3-----|---1------0h1-------|-1---1------0-----------------------------||---0----------2---|-----2--------2-----|---0----------0--------0-2-0h2p0----------||----------0-------|-3------------------|-------------------0-------------4--------||-3----------------|----------0-----0-2-|-3------------------------------------0-2-||------------------|--------------------|----------3-------------------------------|
|-------0--2-----2-|-0-----0------------|-------0--2-----2-|---------------------------||-1---1------3-----|---1------0h1-------|-1---1------3-----|-1-0-1--3p1p0--3p1p0--1----||---0----------2---|-----2--------2-----|---0----------2---|---------------------------||----------0-------|-3------------------|----------0-------|-3-3-----------------------||-3----------------|----------0-----0-2-|-3----------------|---------------------------||------------------|--------------------|------------------|---------------------------|
|-5-----5-7-----7-|-8-----8/2-----2-|-0---------5-3-1h3p1-|-----------------------||-----5-----5-----|---5-------3-----|---1---1-------------|0-1-1----------------5-||---5---------5---|-----5-------2---|-----2-----5-3-2-----|0-2-2--------------5---||-7-------6-------|-5-------4-------|-3-------------------|----2------------7-----||-----------------|-----------------|---------------------|2-0-0---0/8-7--0-------||-----------------|-----------------|---------------------|-----------------------|
|-------7-------------8-------x-------0---------------0-----------0--------------||-----5---5---------5---5-----------3---3-----x-----1---1-------1---1------0-1-1-||---5-------5-----5-------5-------2-------2-------2-------2---2-------2----0-2-2-||-6-----------6-5-----------5---4-----------4---3-----------3-----------3--------||--------------------------------------------------------------------------2-0-0-||--------------------------------------------------------------------------------|
{First Verse Interlude}|-3-----3--3-3-3--0--3--2-|---3-----2-----0-----2p0-|---3--3-3-3--0----7-5---3-5-||-3-----1--1-1-1--1--3--3-|-3---3-----3-------3-----|---1--1-1-1--1----8-7---5-7-||-0-----2--2-2-2--2--2--2-|-2-----2-----2---2-------|---2--2-2-2--2----9-7---5-7-||-0-----2--2-2-2--2-------|-0-----------------------|---2--2-2-2--2-0--0-0-0-0-0-||-2--0--------------------|-------------------------|-0--------------------0-----||-------------------------|-------------------------|----------------------------|
|-----------3--3-3-3--0--3--2-|---3-----2-----0-----2P0-|---3--3-3-3--0----7-5-3---5-||---7-------1--1-1-1--1--3--3-|-3---3-----3-------3-----|---1--1-1-1--1----8-7-5---7-||-7---------2--2-2-2--2--2--2-|-2-----2-----2---2-------|---2--2-2-2--2----9-7-5-X-7-||-7---6-7---2--2-2-2--2-------|-0-----------------------|---2--2-2-2--2-X--0-0-0-X-0-||---------0-------------------|-------------------------|-0-----------0-X------------||-----------------------------|-------------------------|----------------------------|
|---------------------------------|--------------------------1--0-||---------------------------1P0---|--------------------------1--1-||---------0-------0-------2-----2-|---------------0-------0--2--2-||-------2-------0---0---2---------|---2P0-------2-------0----3--2-||-0-2-3-----3-2-------0-----------|-0-----0-2-3-----3-2-----------||---------------------------------|-------------------------------|
|---------------------------------|---0-----------------------1--0-||---------------------------1P0---|-----3---------------------1--1-||---------0-------0-------2-----2-|----------------0-------0--2--2-||-------2-------0---0---2---------|--------------2-------0----3--2-||-0-2-3-----3-2-------0-----------|-0------0-2-3-----3-2-----------||---------------------------------|--------------------------------|
|---------------------|----3--3-3-3--0--3--2-|---3-----2-----0-----2-0-||---------------------|----1--1-1-1--1--3--3-|-3---3-----3-------3-----||---------0-------0---|----2--2-2-2--2--2--2-|-2-----2-----2---2-------||-------2-------0---0-|----2--2-2-2--2-------|-0-----------------------||-0-2-3-----3-2-------|-0--------------------|-------------------------||---------------------|----------------------|-------------------------|
|---3--3-3-3--0---7-5-3-5----------------------3-3-3-3-3--0--||---1--1-1-1--1---8-7-5-7----------------------1-1-1-1-1--1--||---2--2-2-2--2---9-7-5-7----------------------2-2-2-2-2--2--||---2--2-2-2--2---0-0-0-0----------------7-----2-2-2-2-2--2--||-0------------------------0-6-7-6-7-6-7----0----------------||------------------------------------------------------------|
|---------3---2-----0-----2-0-------|---3-3-3--3---0--7---5-3-5-------||----3--3---3---3-----3-------3-----|---1-1-1--1---1--8---7-5-7-------||-0--2------------2-----2-------2---|---2-2-2--2---2--9---7-5-7-------||----0----------------------------0-|---2-2-2--2---2--0---0-0---------||-----------------------------------|-0----------0-0----0---------0-2-||-----------------------------------|---------------------------------|
|-------0---------0-------5-----7-----8-----7-----7-------------0---------------------1-0-||-----------3---3---3-------5-----5-------5---5---------------3---3-------------------1-1-||-----0-------0-------0-------------------------------------0-------0--------0-----0--2-2-||---2-------------------7-----7-----7---7-------7---------2----------------0-----0----3-2-||-3-------2-----------------------------------------0-2-3--------------3-2-----2--------0-||-----------------------------------------------------------------------------------------|
|-------0-----0---------------0---------5-----7-----8-----7---7---|-----------1---3-1-----------------------5-----5-------5---5-----|---------0---------0-----0-----0---0-----------------------------|-0---------------------0---------0---------7-----7---7---------7-|---2-3---------------2-----2---------0---------------------------|-----------------------------------------------------------------
-----------0--------------1--1-|---------------------|---3-3-3--3-3--0--3-2-|---------x-------3-----3--1--1-|---------------------|---1-1-1--1-1--1--3-3-|-------------0-----0------2--2-|---------0-------0---|---2-2-2--2-2--2--2-2-|---------------------0----3--2-|-------2-------0-----|---2-2-2--2-2--2--0-0-|-0h2h3-3-------2-------------0-|-0-2-3-----3-2-----2-|-0-------------0------|-------------------------------|---------------------|----------------------|
|---3-----2-----0-----2p0-|---3-3-3--3--0----7---5---3-|---------------||-3---3-----3-------3-----|---1-1-1--1--1----8---7---5-|---------------||-2-----2-----2---2-------|---2-2-2--2--2----9---7---5-|---------------||-0-----------------------|---2-2-2--2-------0-0---0---|-------------7-||-------------------------|-0-----------0--0-----------|-6-7-6-7P6-7---||-------------------------|----------------------------|---------------|
|---3-3-3-3-3----0--------2-----5-----7------10----------12-------14-||---1-1-1-1-1----1----3----------------------------------------------||---2-2-2-2-2----2------2---2/5---5/7---7/11----11-11-12----13/14----||---2-2-2-2-2----2--0------------------------------------------------||-0-----------0--0---------------------------------------------------||--------------------------------------------------------------------|
|---3-3-3-3-3---0-x-7-5-3-5-|-------------------------------------------|---1-1-1-1-1---1-x-8-7-3-7-|-------------------3-------1p0-------------|---2-2-2-2-2---2-x-9-7-5-7-|---------0-------0-------2-----2-----------|---2-2-2-2-2-0-2-x-0-0-0-0-|-------2-------0-------2-----------2p0-----|-0-------------0-----------|-0-2-3-----3-2-------0-----------0-----0-2-|---------------------------|-------------------------------------------
----------------1--0--|-------------0---------------|---5-----7-----8-----7---5---|----------------1--1--|-----------1---1---1---3-----|-----5-----5-----5-----5-----|-----0-------0--2--2--|-------0---------0---------0-|-----------------------------|---2-------0----3--2--|-0-------2---------------0---|-7-----7-----7-----7-------7-|-3-----3-2---------0--|---2-3---------------2-------|-----------------------------|----------------------|-----------------------------|-----------------------------|
|----------------------------------1--0-|---------------------||-------1-----1-----1---3-----3----1--1-|---------------------||-----------0-----0-------0-----0--2--2-|---------0-------0---||-0-------2------------------------3--2-|-------2-------0---0-||---2-3--------3------2-----2---------0-|-0-2-3-----3-2-------||---------------------------------------|---------------------|
|---3-3-3-3--0--3-2-2--3-2-----2p0-----|---3-3-3-3--0--7-5-3-|---------------||---1-1-1-1--1--3-3-3------3-------3---|---1-1-1-1--1--8-7-5-|---------------||---2-2-2-2--2--2-2-2--------2-------2-|---2-2-2-2--2--9-7-5-|---------------||---2-2-2-2--2--0-0-0------------------|---2-2-2-2--2--0-----|-------------7-||-0----------0-------------------------|-0----------0--------|-6-7-6-7p6-7---||--------------------------------------|---------------------|---------------|
|---3-3-3-3--0-|--------------7------10----------12-------14-||---1-1-1-1--1-|---3-----------------------------------------||---2-2-2-2--2-|-2-2-2--4-5/7---5/11----11-11-12----12/14----||---2-2-2-2--2-|-0-------------------------------------------||-0----------0-|---------------------------------------------||--------------|---------------------------------------------|
|-3-3--3--0--7-5-3-2-|------------------------------------|-------------------1-0-||-1-1--1--1--8-7-5-3-|-----------1---------3-1-x-1--1-----|-------------------1-1-||-2-2--2--2--9-7-5-2-|---------0---0-----0---2-x-2--2-0-2-|---------0-------0-2-2-||-2-2--2--2--0-0-0-0-|-------2---------0-----2-x-2--2---2-|-------2-------0---3-2-||-0-0--0--0----------|-0-2-3---------2-------0-x-0--0---0-|-0-2-3-----3-2---------||--------------------|------------------------------------|-----------------------|
|-------------------------------------5-----7-----8-----7-----7-|-------------3---1---3-------3---------5-----5-------5---5-----|-------0-------0---------0-------0-----------------------------|---------2-------------0-------0---7-----7-----7---7-------7---|-0-2-3-----3-------2-------2-----------------------------------|---------------------------------------------------------------
-------------------------------1-0-|----------------------2------| {Bridge}-------1-----1-----1---3-------1-1-|-----------------3-3--3------|-----------0-----0-------0---0-2-2-|---------0-------0-0--2------|---------2-------------------0-3-2-|-------2-------0------0------|-0-2-3---------3-----2-----2-----0-|-0-2-3-----3-2---------------|-----------------------------------|-----------------------------|
|-0-2-3---0-2-3--0-2-3--3--2-|-----2--2-2----------|-2--2-2--0----|-3-3-3---3-3-3--3-3-3--3--3-|-3---3--3-3-3--------|-3--3-3--3----|-2-2-2---2-2-2--2-2-2--2--2-|-0-0--------0--------|-0--0-0--0----|-0-0-0---0-0-0--0-0-0--0--0-|-2-2-----------------|--------------|----------------------------|-3-3--------3--3-3-3-|---------3--3-|----------------------------|---------------------|--------------
|-0-2-3---0-2-3--0-2-3--3--2-|---------------------------2------------------0-|-3-3-3---3-3-3--3-3-3--3--3-|-------3-3-3--3------------3--3-------------1---|-2-2-2---2-2-2--2-2-2--2--2-|-0-----0-0-0--0------------0----------------2---|-0-0-0---0-0-0--0-0-0--0--0-|-2-----2-2-2--2------------0----------------2---|----------------------------|-3---3-----3--3--3p0-2--2--2-----2p0---0--0-----|----------------------------|-------------------------------------3----------
------------------------------|-------------3---------|------8----------|---1-----1-----3---1---3-1--1-|-----------3---3---3---|-9/10---10----10-|-----2-----2---------2-----2--|---5---5---------4---4-|-----------10----|-------------3---3------------|-7---7---7-------------|-----------------|------------------------------|-----------------------|-----------------|-3-----1----------------------|-----------------------|-----------------|
{solo} solo at www.geocities.com/ledzeppelin842002/swthsoloMSG.html {Final}
|---------1-x-1--x-1---x-1-x-1-3------3-3---1-x-1--1------------------------3----||---------1-x-1--x-1---x-1-x-1-3-5-5--3-3---1-x-1--1-1-3--5-5-x-x-x-x-3-3-x-3--0-||---------2-x-2--x-2-2-x-2-x----------------2-x-2--2-----------------------------||-7--5-5--3-x-3--x-3---x-3-x-3-5-7-7--5-5---3-x-3--3-3-5--7-7-x-x-x-x-5-5-x-5----||-7--5-5--3---3----3-----3---3-5-7-7--5-5---3---3--3-3-5--7-7-x-x-x-x-5-5-x-5----||-5--3-3--1---1----1-----1---1-3-5-5--3-3---1---1--1-1-3--5-5---------3-3--------|
|-1-x-x-1--x-1--x-1-x-x-1-3--5-5-------x-3--x-|-1-x-x-1--x-1--x-1-x-x-1-3--5-5--3-3--x-3--x-|---------------------------------------------|-3-x-x-3--x-3--x-3-x-x-3-5--7-7--5-5--x-5--x-|-3---------------3-----3-5--7-7--5-5---------|-1---------------1-----1-3--5-5--3-3---------
-------------------------------------------------------------------|--------------------5-5----------3--3--x-x-x-x---------------------|-------5 / 9-9-7-5-------------------------------------5 / 9-9-7-5-|-3--7---------------7-7--x-x-x-x-5--5--x-x-x-x--3--7---------------|-------3 / 7-7-5-3--7-7--x-x-x-x-5--5--x-x-x-x---------3 / 7-7-5-3-|-1--5---------------5-5--x-x-x-x-3--3-----------1--5---------------|
|---------------------------------------------------------------|-5-5--3-3-----------------------------5-5----------3-3--x-x-x-x-|-------------------------5 / 9-9-7-5---------------------------|-7-7--5-5--x-x-x-x--3--7--------------7-7--x-x-x-x-5-5--x-x-x-x-|-7-7--5-5--x-x-x-x-------3 / 7-7-5-3--7-7--x-x-x-x-5-5--x-x-x-x-|-5-5--3-3--x-x-x-x--1--5--------------5-5--x-x-x-x-3-3----------
------------------------------1-----------------1--|-------------------5-5--------1------5-5--------1--|------5 / 9-9-7-5-------4-4---2------5-5--4-4---2--|-3--7--------------7-7--5-5---3------7-7--5-5---3--|------3 / 7-7-5-3--7-7--5-5---3------7-7--5-5---3--|-1--5--------------5-5--3-3---1------5-5--3-3---1--|
|-------8----------7--7-----------------------------------||-----0---------8---8------10-------13----12--10----10----||---------5-----7---7---------10-----------------12----12-||-0/7-------7/9---------10-------10----10-----------------||---------------------------------------------------------||---------------------------------------------------------|
|--------------------10---7--------------------------------------||---0-0--------8---------------10-------13----12-----10----10----||--------5-------7------7---9-----10--------------10----12----12-||-7--------7/9-----9-----------------10----10--------------------||----------------------------------------------------------------||----------------------------------------------------------------|
|--------8---5---7-----10-7-----------------------------||-8-0--------------8--------10----13----12--10----10----||-----5--5-5-5/7-----7---------10----10--------12----12-||-------------------------------------------------------||-------------------------------------------------------||-------------------------------------------------------|
|---------8---------10-7---x--0/8 \ 1---||---8---------8---5------8----0/10/ 10--1---||-----5-----5---7-------------------10------||-7-----7-----------------------------------||-------------------------------------------||-------------------------------------------|
{lyrics} I think.. This is a song of hope. There's a lady who's sure All that glitters is gold And she's buying a Stairway to Heaven. An' when she gets there she knows If the sores are all closed Witha word she can get what she came for. Ooooo Oo Oooo! An' she’s buying a Stairway to Heaven. There’s a sign on the wall But she wants to be sure Cause you know sometimes words have two meanings. In a tree by a brook There's a song bird that sings sometimes all of our thought are misgivin'. And I think you can see that. And it makes be wonder. She dose!.. Oo! Oooo! Ooo! Yes sir! There’s a feeling I get When I look to the west And my spirit is crying for leaving. In my thoughts I have seen Rings of smoke thru the trees And the voices of those who stand looking. Ahha! Ahha! Ahha! Ahha! Ooooooooo Oooo! And its whispered that soon If we all Call the tune! Then the piper will lead us to reason. And a new day will dawn For those who stand long And the forest will eco with laughter.. Dose anybody remember laughter?.. Baby! Oooo! Just give it to me! Give it to me! Give it to me! She dose! She dose! But I got some good news!.. I say… If there’s a bustle in your hedgerow Don’t be alarmed now. It's a spring-clean for the May Queen. Yes there are two paths you can go by But in the long run There’s still time to change the road you're on. I hope so... Oooo! Baby! Baby darling! Baby darlin'! Baby darlin! Baby darlin'! Baby darlin'! But, wait a minute! Wait a minute!.. Your head is humming and it wont go Incase you don’t know The piper’s calling you to join him. Dear lady can you hear the blow And did you know Your Stairway lies on the whisperin’ wind! Oooooo! Ooo! Ahhh! And as we wind on down the road! Our Shadow are taller then our soul! There walks a lady we all know of! Who shines white light and wants to show! How everything still turns to gold! Ya!.. And if you listen very hard! The tune will come to you at last! When all is one, An’ one is All! To be a rock and not to roll… Not to roll! Don’t make me roll! And she’s buying a Stairway__ to Heaven… Ahh! Ahhh! Ahhhhhh! Oooooooo! Oooo! Oo!
Tap to rate this tab
 
# A B C D E F G H I J K L M N O P Q R S T U V W X Y Z