Led Zeppelin - Over The Hills And Far Away tab

                           OVER THE HILLS AND FAR AWAY
                           As recorded by Led Zeppelin
                    (From the 2004 Album HOUSES OF THE HOLY)

Words and Music by Jimmy Page & Robert Plant
Transcribed by www.mikesguitarsite.co.uk

           G                   AIX                 GVII                  G5
      3 2 0 0 0 3         x x x 9 10 9          x x x 7 8 7          3 x 0 0 3 3

           D                   D5                   DV                  G5III
      x x 0 2 3 2          x x 0 2 3 x          x x x 7 7 5          3 5 5 x x x

          D5V                  A5                   E5                    A
      x 5 7 7 x x          5 7 x x x x          0 2 x x x x          x 0 2 2 2 0

           E                  A5IX               G(type 2)              Dsus2
      0 2 2 1 0 0         x x x 9 10 12         x x x 7 8 9          x x 0 2 3 0

Gtr I (E A D G B E) - 'Jimmy Page - Rhythm Steel String Acoustic'
Gtr II (E A D G B E) - 'Jimmy Page - Rhythm Steel 12 String Acoustic'
Gtr III (E A D G B E) - 'Jimmy Page - Rhythm w/overdrive'
Gtr IV (E A D G B E) - 'Jimmy Page - Lead w/dist'
Gtr V (E A D G B E) - 'Jimmy Page - Lead w/dist'
Gtr VI (E A D G B E) - 'Jimmy Page - Rhythm Clean Electric'

Intro Q=95 4/4 Gtr I|-----------||-------3-(3)---------------|-------------2-2-2-2-2-----------||-----------||o----0-0-(0)-0-------------|-------------3-3-3-3-3-----------||-0h2h4-----||--0--0-------0-0-0h2p0---0-|-4p2p0-------2-2-2-2-2-0h2p0-----||-------4p0-||-----0---------0-------4---|-------0-(0)-0---------------4p0-||-----------||o----2---------2-----------|---------------------------------||-----------||-----3---------3-----------|---------------------------------|
|------3-(3)---------------|-------------2-----------------||----0-0-(0)-0-------------|-------------3-----------------||-0--0-------0---0h2p0---0-|-4p2p0-------2-----------------||----0-----------------4---|-------0-(0)-0-0-0-----2---0-2-||----2---------------------|-------------0-----0-2---2-----||----3---------3-----------|-------------------------------|
|------3-3-(3)-3-----------------||----0-0-0-(0)-0---0-------------||-0--0-----------0---0h2p0---0---||----0-----------0---------4-----||----2---------------------------||----3---------------------------|
|-------------2-(2)-2-2-----------||-------------3-(3)-3-3-----------||-4p2p0-------2-(2)-2-2-0h2p0-----||-------0-(0)-0-(0)-0-0-------4p0-||---------------------------------||---------------------------------|
1.|----------------------|---------------------------||-----3--3-3-3-3-3-3---|---3-3-3-(3)-3-3-3-3-3-3---||-----0------0-0-0-0---|-0-0-0-0-(0)-0-0-0-0-0-0---||-2---2------0---0-0---|-3-3-3-3-(3)-3-3-3-3-3-3---||-3--(3)-----2---2-2-0-|-1-1-1-1-(1)-1-1-1-1-1-1---||----------------------|---------------------------|
2. Gtrs I, II Gtrs I, II|-------------0-----------------||----------------------------||-3s5-5-5-5-5-5---5------------o||------3---------------------||-0---0-0-0-0--------0h2p0------||----x-0-0-(0)---------------||-3s5-5-5-5-5---5-5--------4p0--||------2---------------------||-1s3-1-3-3-3---3-3------------o||--3---3-2---------------2-0-||-------------------------------||--------------3-3-(3)-3-----|
|---------2-2-2-0-(0)---------------||---------3-3-3-3-(3)---------------||-----x-2-2-2-2-0-(0)-0-------------||-2p0-----------0-(0)---------------||-----------------------------0-2p0-||---------------------3-3-(3)-------|
|-------2-2-2-2-0-(0)---------------|---------2-2-2-(2)-2----------------|||-----3-3-3-3-3-3-(3)---------------|-----3-3-3-3-3-(3)-3-3-3------------|||-----2-2-2-2-2-0-(0)-0-------------|-----2-2-2-2-2-(2)-2-2---0h2p0------|||-2p0-----------0-(0)---------------|-2p0---------0-(0)-------------4p0--|||-----------------------------0-2p0-|------------------------------------|||---------------------3-3-(3)-------|------------------------------------||
Verse 1|----3-3-3-(3)-3---------------||----0-0-0-(0)-0---0-----------||-0--0-0-0-(0)-0-0---0h2p0---0-||----0-0-0-(0)-0-----------4---||----2-2-2-(2)-2---------------||----3-3-3-(3)-3---------------|
|-------------2-(2)-2-------------|----3-3-(3)--------------||-------------3-(3)-3-3-----------|----0-0-(0)-/3-3-5-3-3-3-||-4p2p0-------2-(2)-2---0h2p0-----|-0--0-0-(0)-/4---4-4-4-4-||-------0-(0)-0-(0)-0---------4p0-|----0-0-(0)--------------||---------------------------------|----2-2-(2)--------------||---------------------------------|----3-3-(3)--------------|
|---------------------------------|------3-3-(3)-3---------------||-5s7-7-7-7-7-7-(7)-7-7-----------|----0-0-0-(0)-0---0-----------||-5s7-7-7-7-7-7-(7)-7-7-0h2p0-----|-0--0-0-0-(0)-0-0---0h2p0---0-||-0-------0-------------------4p0-|----0-0-0-(0)-------------4---||---------------------------------|----2-2-2-(2)-----------------||---------------------------------|----3-3-3-(3)-----------------|
|-------------2-(2)-2---------------||-------------3-(3)-3-3-------------||-4p2p0-------2-(2)-2-2-0h2p0-------||-------0-(0)-0-(0)-----------4-0---||-----------------------------------||-----------------------------------|
|-----------------------------|---------2-2-0-(0)---------------||-----3-3---------------------|---------3-3-3-(3)---------------||-----0-0-0-(0)---------------|-----x-2-2---0-(0)-0-------------||---2-2-----------------------|-2p0-----0-----------------------||-3---3---2--2----------0-2p0-|---------------------------0-2p0-||---------------3-3-(3)-------|-------------------3-3-(3)-------|
|-------2-2-2-0-(0)-----------------||-----x-3-3-3-3-(3)-----------------||-----x-2-2---0-(0)-0---------------||-2p0-----0-------------------------||---------------------------0-2p0---||-------------------3-3-(3)---------|
|---------2-----(2)S7--9--(9)--9--9-7-|-7-7-7-7-7-7-7--7--7--9--9--(9)--9--9-7-||-----3---3-----(3)S8-10-(10)-10-10-8-|-8-8-8-8-8-8-8--8--8-10-10-(10)-10-10-8-||-----2-2-2-----(2)S7--9--(9)--9--9-7-|-7-7-7-7-7-7-7--7--7--9--9--(9)--9--9-7-||-2p0-----0-0----------0--(0)---------|-0---------0---(0)----------------------||---------0-0-------------------------|----------------------------------------||-------------0-(0)-------------------|----------------------------------------|
|-7-7-7--7---------7--7--9--9--(9)--9--9-7--||-8-8-8--8---------8--8-10-10-(10)-10-10-8--||-7-7-7--7---------7--7--9--9--(9)--9--9-7--||-0-----(0)---------------------------------||-----------0---0-(0)-----------------------||-------------7-0-(0)-----------------------|
Gtrs I, III|-7-7-7--7---------7--7--9--9--(9)--9--9-7-|-7--7---7--7--3-2-----|||-8-8-8--8---------8--8-10-10-(10)-10-10-8-|-8--8---8--8--3-3-3-2-|||-7-7-7--7---------7--7--9--9--(9)--9--9-7-|-7--7---7--7--0-2-2-2-|||-0-----(0)--------------------------------|-0-(0)-(0)-0--0-0-0-2-|||-----------0---0-(0)----------------------|--------------------0-|||-------------7-0-(0)----------------------|--------------3-------||
Verse 2 + 4 $||----------------------------------|||o---------------------------------|||------------x-x-x-----------------|||--5-5-5-5-5-x-x-x-2-2-(2)-2-4p=2--|||o-5-5-5-5-5-x-x-x-0-0-(0)-0-0-(0)-|||--3-3-3-3-3-x-x-x-----------------|
|------------3-2-----|---------------------------------||------------3-3-3-2-|---------------------------------||------------0-2-2-2-|-----------x-x-x-----------------||-5-5-5-5-5--0-0-0-2-|-5-5-5-5-5-x-x-x-2-2-(2)-2-4p=2--||-5-5-5-5-5--------0-|-5-5-5-5-5-x-x-x-0-0-(0)-0-0-(0)-||-3-3-3-3-3--3-------|-3-3-3-3-3-x-x-x-----------------|
G AIX GVII AIX GVII Gtr I | | | | | |||| || || | | | | | |||| || || | | / / / / / xxxx // // / / / / / xxx/ // // / /
Gtr III PM-| PM| PM-| PM--||------------------------|----------------------------------||------------------------|----------------------------------||------------------------|----------------------------------||-5-5-5-5-5--------------|----------------------------------||-5-5-5-5-5--------------|-5-5---5-5b7==(5)r----------------||-3-3-3-3-3----5--5--7-5-|-----7----------------5--5--5-7-5-|
AIX GVII | || | | | |||| || || | | / // / / / xxx/ // // / /
PM--------||-----------------------------------||-----------------------------------||-----------------------------------||-----------------------------------||-5--5---5--------------------------||------7---3b5==(3)r----5--5--5-7-5-|
To Coda AIX GVII G5D D5A | | | | |||| || || | | | | | | ||| | | | / / / / x/// // // / x / / / / xx/ / / /
PM-| PM--||----------------------------------|---------------------3-2---------|||----------------------------------|---------------------3-3-3-2----o|||----------------------------------|---------------------0-2-2-2-----|||----------------------------------|---------------------0-0-0-2-----|||-5-5---5-5b7==(5)r----------------|-5-5---5-------------------0----o|||-----7----------------5--5--5-7-5-|-----7---3b5==(3)r---3-----------||
Verse 3 Gtrs I, III|---------------------------------||---------------------------------||-----------x-x-x-----------------||-5-5-5-5-5-x-x-x-2-2-(2)-2-4p=2--||-5-5-5-5-5-x-x-x-0-0-(0)-0-0-(0)-||-3-3-3-3-3-x-x-x-----------------|
|------------3-2-----|----------------------------------||------------3-3-3-2-|----------------------------------||------------0-2-2-2-|-----------x-x-x------------------||-5-5-5-5-5--0-0-0-2-|-5-5-5-5-5-x-x-x-2-2-(2)-2-4p=2---||-5-5-5-5-5--------0-|-5-5-5-5-5-x-x-x-0-0-(0)-0-0-(0)--||-3-3-3-3-3--3-------|-3-3-3-3-3-x-x-x------------------|
Interlude G AIX GVII GVII DV A E Gtr I | | | | | |||| | | | | | | | | | | | | | | | | ||| | |||| / / / / / xxxx / / / / / / / / / / / / x / / / xx/ / ////
Gtr III|------------------------------||------------------|-----------------||------------------------------||--------7-7-7-----|-----------------||------------------------------||--------7-7-7-----|-----------------||-5-5-5-5-5-----/7-7-(7)-7-7---||--------7-7-7-x-7-|-7---------------||-5-5-5-5-5-----/7-7-(7)-7-7---||-5-5-5--5-5-5-x-5-|-5-7---2-(2)-----||-3-3-3-3-3-----/5-5-(5)-5-5-0-||-3-3-3------------|---5---0-(0)-----|
GVII DV Gtr I | | | | | | || / / / / / / x/
Gtr IV|------------------------------------------------||-------------15---------------------10----------||-14b16==(14)----14r(14)---9b11==(9)----9r(9)----||----------------------------------------------7-||------------------------------------------------||------------------------------------------------|
|
| Gtr III|---------------------------------5---5-5------5-||---------------------------------7---7-7------7-||---------------------------------7---7-7------7-||------------------------------------------------||----------5---5--5------------------------------||----------3---3--3------------------------------|
A E | | | | | | | | | | / / x x / / / / / /
~~~~~~~~|---------------------------------------||------------8b9==(8)-(8)r--------------||-----9---7-----------------------------||-7h9---9-------------------------------||---------------------------------------||---------------------------------------|
|
|-5-------------------------------------||-7-------------------------------------||-7-------------------------------------||---------------------------------------||-----7------------2--(2)S7-7-7-(7)-7-7-||-----5------------0--(0)S5-5-5-(5)-5-5-|
GVII DV | | | | | | || / / / / / / x/
|------------------------------------------------||-------------15---------------------10----------||-14b16==(14)----14r(14)---9b11==(9)----9r(9)----||----------------------------------------------7-||------------------------------------------------||------------------------------------------------|
|
|---------------------------------5---5-5------5-||---------------------------------7---7-7------7-||---------------------------------7---7-7------7-||------------------------------------------------||----------5---5--5------------------------------||----------3---3--3------------------------------|
A E | | | | | | |||| / / x x / / ////
~~~~~~~~|------------------------------|||------------8b9==(8)-(8)r-----|||-----9-7-7--------------------|||-7-9--------------------------|||------------------------------|||------------------------------||
|
|------------------------------|||------------------------------|||------------------------------|||-7----------------------------|||-5---7------------2--(2)------|||-----5------------0--(0)------||
Guitar Solo Gtr V|---------------------------------------||-------------------------------5-------||--4b6=========(4)-----(4)4-----------4-||---------------------------------------||---------------------------------------||---------------------------------------|
|
| Gtr III|---------------------------------------||-----------11--------------------------||-11p===9-9-11-----4p2--4p2-4s6-4p2-----||-11p===9-9-11-----4p2--4p2-4s6-4p2-4---||-----------------------------------4---||---------------------------------------|
|--------------------------------------------------------||--------------------------------------------------------||--4r(4)b6==(4)r(4)b6==(4)r(4)p2b3====(2)r---------------||----------------------------------------------------2-4-||--------------------------------------------------------||--------------------------------------------------------|
|
| ~~~|--------------------------------------------------------||---------------11---------------------------------------||-11p=9------9--11-------------4p===2--4p==2-2h3-(3)-----||-11p=9------9--11-------------4p===2--4p==2-------------||--------------------------------------------------------||--------------------------------------------------------|
|-----------------------------------|---------------------------------------||-----------------------------------|---------------------------------------||-----------------------2-----------|---------------------------------------||-(4)2-4----2-4---2-4-2-----2-4---2-|--4-2----2-----------------------------||-----------------------------------|------4----4p2---2p0h2---0-------------||-----------------------------------|---------------0-----------2p=0--2-0-0-|
|
| ~~~|-----------------------------------|---------------------------------------||--------11-------------------------|--------11-----------------------------||-11p9-9-11-----4p2-4p2-4s6-4p2-----|-11p9-9-11-----4p2---4p2-2h3-(3)-------||-11p9-9-11-----4p2-4p2-4s6-4p2-4---|-11p9-9-11-----4p2---4p2---------------||-------------------------------4---|---------------------------------------||-----------------------------------|---------------------------------------|
|-------------------------------------||-------------------------------------||-------------------------------------||-------------------------------------||-------------------------------------||-(0)2-2--2-2s6s==7b9========(7)r-----|
|
|-------------------------------------||--------11---------------------------||-11p9-9-11---4p2-4p===2-4s6--4p==2---||-11p9-9-11---4p2-4p===2-4s6--4p==2-4-||-----------------------------------4-||-------------------------------------|
|---------------------------------------------||---------------------------------------------||-------------------------------16b18==(16)r--||---------------------------------------------||---------------------------------------------||--2p0-2--2-2p0h2-----------------------------|
|
| ~~~|---------------------------------------------||--------11-----------------------------------||-11p9-9-11-----4p2-4p2-2h3-(3)---------------||-11p9-9-11-----4p2-4p2-----------------------||---------------------------------------------||---------------------------------------------|
|---------14-------14------17b21========(17)r-----||-17------------17----17--------------------------||-------------------------------------------------||-------------------------------------------------||-------------------------------------------------||-------------------------------------------------|
|
|-------------------------------------------------||------------11-----------------------------------||-11p9--9----11--------4p2--4p====2-4s6---4p==2---||-11p9--9----11--------4p2--4p====2-4s6---4p==2-4-||-----------------------------------------------4-||-------------------------------------------------|
|-17pb18r(17)p14-14----------------------------------------17--------------------17-------||-------------------17b19==(17)r-17b19==(17)r-17b19==(17)r----17-17-17b19==(17)r----17-17-||-----------------------------------------------------------------------------------------||-----------------------------------------------------------------------------------------||-----------------------------------------------------------------------------------------||-----------------------------------------------------------------------------------------|
|
| ~~~~~|-----------------------------------------------------------------------------------------||-------------------11--------------------------------------------------------------------||---------11p==9--9-11--------------------4p===2-------4p===2--2h=3---------(3)-----------||---------11p==9--9-11--------------------4p===2-------4p===2-----------------------------||-----------------------------------------------------------------------------------------||-----------------------------------------------------------------------------------------|
|--------------17--------------------17--------------------17--------------------17-------||-17b19==(17)r----17-17-17b19==(17)r----17-17-17b19==(17)r----17-17-17b19==(17)r----17-17-||-----------------------------------------------------------------------------------------||-----------------------------------------------------------------------------------------||-----------------------------------------------------------------------------------------||-----------------------------------------------------------------------------------------|
|
|-----------------------------------------------------------------------------------------||--------------------11-------------------------------------------------------------------||---------11p===9--9-11------------------4p=2----------4p===2--4s=6----------4p===2-------||---------11p===9--9-11------------------4p=2----------4p===2--4s=6----------4p===2--4----||------------------------------------------------------------------------------------4----||-----------------------------------------------------------------------------------------|
|-----------------------------------------------------------------------||-17b19==(17)r---17b19==(17)r----15p14----14----------------------------||--------------------------------------17----17-16-14----16p14--14b14.5-||-----------------------------------------------------16----------------||-----------------------------------------------------------------------||-----------------------------------------------------------------------|
|
| ~~~|-----------------------------------------------------------------------||-----------------------------11----------------------------------------||---------11p==9----------9---11-----------4p=2--4p=2--2h=3-(3)---------||---------11p==9----------9---11-----------4p=2--4p=2-------------------||-----------------------------------------------------------------------||-----------------------------------------------------------------------|
|----------------------------------------------------||----------------------------------------------------||-14---14b14.5---------------14---14b14.5------------||-----------------16-14-16------------------16-14-16-||----------------------------------------------------||----------------------------------------------------|
|
|----------------------------------------------------||--------------11------------------------------------||-11p9--9------11--------4p2--4p2--4s=====6--4p=2----||-11p9--9------11--------4p2--4p2--4s=====6--4p=2--4-||--------------------------------------------------4-||----------------------------------------------------|
3/4 ~~~~~~~~~~|------------------------------||------------------------------||------------------------------||-16s15s14----(14)-------------||------------------------------||------------------------------|
|
|------------------------------||----------11------------------||-11p=9--9-11------4p2-4p2-2h3-||-11p=9--9-11------4p2-4p2-----||------------------------------||------------------------------|
Gtrs III, IV|-----------------------|----------------------|---------------------------16-||-----------------------|--------2-(2)-5-(5)-9-|-----------14-(14)-17-(17)-17-||-------------------1-1-|-/3-3-3-3-(3)-6-(6)-9-|-/15-15-15-15-(15)-18-(18)----||---------------2-2-2-2-|-/4-4-4---------------|-/16-16-16--------------------||-1-1-1-4-(4)-4-4-4-----|----------------------|------------------------------||-2-2-2-6-(6)-6---------|----------------------|------------------------------|
AIX GVII AIX A5AIX 2/4 4/4 Gtr I | | | | | | | | | | | |||| || || | | / / / / / / / / / / / xxx/ // // / x
Gtr III PM-| PM--||-18----------------||----------------------------------||-19----------------||----------------------------------||-------------------||----------------------------------||-------------------||----------------------------------||-------------------||-5-5---5-5b7==(5)r----------------||-----0-5-(5)-5-7-5-||-----7----------------5--5--5-7-5-|
GVIG(AyGVII) AIXA5 AIX | || | | |||| || || | | / // / / xxx/ // // / x
PM-| PM--||-----------------------------------||-----------------------------------||-----------------------------------||-----------------------------------||-5--5---5--------------------------||------7---3b5==3r----5--5--5-7-5---|
D.S. al Coda GVII G(GVII 2) AIXA5 GVII G5D D5A | || | | |||| || || | | | || | | | | | | / // / / xx// // // / x / // / / / / / /
PM-| PM--||-----------------------------------|-------------------3-2-----|||-----------------------------------|-------------------3-3-3-2-|||-----------------------------------|-------------------0-2-2-2-|||-----------------------------------|-------------------0-0-0-2-|||-5--5---5-5b7==(5)r----------------|-5--5---5----------------0-|||------7----------------5--5--5-7-5-|------7---3b5==3r--3-------||
& Gtrs I, III|---------------------------------||---------------------------------||-----------x-x-x-----------------||-5-5-5-5-5-x-x-x-2-2-(2)-2-4p=2--||-5-5-5-5-5-x-x-x-0-0-(0)-0-0-(0)-||-3-3-3-3-3-x-x-x-----------------|
|------------3-2-----|----------------------------------||------------3-3-3-2-|----------------------------------||------------0-2-2-2-|-----------x-x-x------------------||-5-5-5-5-5--0-0-0-2-|-5-5-5-5-5-x-x-x-2-2-(2)-2-4p=2---||-5-5-5-5-5--------0-|-5-5-5-5-5-x-x-x-0-0-(0)-0-0-(0)--||-3-3-3-3-3--3-------|-3-3-3-3-3-x-x-x------------------|
G G D Dsus2 D Gtr I | | | | | ||| | | | | | | | | | | | | | | | | | | | | / / / / / xxx x x x x x x x x x x x / / / / / / / / /
Gtr III|-------------------------------|--------------------------------||-------------------------------|--------------------------------||-------------------------------|--------------------------------||-5-5-5-5-5-------------------0-|-2-0-----0--(0)---------------0-||-5-5-5-5-5---------------0-2---|-----2-0------------------0-2---||-3-3-3-3-3----/3--/3-(3)-------|----------------/3-/3-(3)-------|
DsDs2 G | | | | | || | | | | | | | / / / / / // / / / / / / /
|-----------------------------------||-----------------------------------||---------0-------------------------||-2-0-----0---(0)---------------0---||-----2-0-------------------0-2-----||-----------------/3-/3-(3)---------|
G D G Gtr VI | | | | | | / / / / / /
Gtr III 5x||---------------------------------|---------------------------------||||o--------------------------------|--------------------------------o||||---------------------------------|---------0-----------------------||||--2-0-----0--(0)---------------0-|-2-0-----0--(0)---------------0--||||o-----2-0------------------0-2---|-----2-0------------------0-2---o||||-----------------/3-/3-(3)-------|----------------/3-/3-(3)--------||
Outro - Freely Gtr VI|-(3)--2----3h5p3p2---|-3------3h5p3p2---||-(0)--3------------0-|-3--------------3-||-(0)--2--------------|-0----------------||-(0)--0--------------|------------------||-(2)-----------------|------------------||-(3)-----------------|------------------|
|-7p5p3----------3h5p3-2---|-3----------------||-------3-(3)------------3-|-3------0h1-1h3---||--------------------------|-0------0---0-----||-0------------------------|--------0---0-----||--------------------------|--------2h3-3-----||--------------------------|------------------|
|-0h2-(2)----3h5p3p2---|-3----(3)-----------|-0h2-(2)----3h5p3p2---||-3------------------3-|-3----(3)---0h1-1h3-|-3------------------3-||-0h2-(2)--------------|-0----(0)---0---0---|-0h2-(2)--------------||-0--------------------|------------0---0---|-0--------------------||----------------------|------------2h3-3---|----------------------||----------------------|----------0---------|----------------------|
Gtr VI|-----------3---------3-|-----------3-------||---------1---------3---|-------3-----------||-------0---------0-----|-----0---0---0---0-||-----------------------|-------------------||-3------------2--------|--1------------1---||-----------------------|-------------------|
|
| Gtr V| <|-----------------------|-------------------||-8pb10r======(8)-------|-(8)---------------||-7pb9r=======(7)-------|-(7)---------------||-----------------------|-------------------||-----------------------|-------------------||-----------------------|-------------------|
H.=H|-------------3-------3---|-^3---------------------*||-----------------3---3---|-^3---------------------*||-----------0---0---0---0-|-^0---------------------*||-------------------------|-^0---------------------*||-------3---------3-------|-^2---------------------*||-------------------------|-^3---------------------*|
|
|-------------------------|------------------------*||-------8-----------------|-15-----(15)---(15)-----*||-7b9==(7)r---------------|-14b16==(14)---(14)r----*||-------------------------|------------------------*||-------------------------|------------------------*||-------------------------|------------------------*|
Tablature Legend ---------------- h - hammer-on p - pull-off b - bend pb - pre-bend r - bend release (if no number after the r, then release immediately) /\ - slide into or out of (from/to "nowhere") s - legato slide S - shift slide - natural harmonic [n] - artificial harmonic n(n) - tapped harmonic ~ - vibrato tr - trill T - tap TP - trem. picking PM - palm muting \n/ - tremolo bar dip; n = amount to dip \n - tremolo bar down n/ - tremolo bar up /n\ - tremolo bar inverted dip = - hold bend; also acts as connecting device for hammers/pulls <> - volume swell (louder/softer) x - on rhythm slash represents muted slash o - on rhythm slash represents single note slash Misc Legend ----------- | - bar || - double bar ||o - repeat start o|| - repeat end *| - double bar (ending) : - bar (freetime) $ - Segno & - Coda Tempo markers - = BPM(8/16=s8/s16), where s8 = swing 8ths, s16 = swing 16ths *************************************************************************************** * Generated using Power Tab Editor by Brad Larsen - http://powertab.guitarnetwork.org * ***************************************************************************************
Tap to rate this tab
 
# A B C D E F G H I J K L M N O P Q R S T U V W X Y Z