Led Zeppelin - Walters Walk tab

Walter's Walk
Led Zeppelin
Coda
Swan Song Inc.
(C) 1982
--------------
Tabbed by
ROSEBUD_SCI
DEC-25-2004


Intro
=====

1:----|---------------------------------------------|2:----|---------------------------------------------|3:----|-----12----12--------------12----12----------|4:-12-|--14-12-14-12-14----12--14-12-14-12-14----12-|5:-12-|--14----14----14-14-12--14----14----14-14-12-|6:----|-----------------12--------------------12----|
1:------------------------------.2:------------------------------.3:------------------------------.4:--14-12-14-12-14--2--2--2-2-2-.5:--14----14----14--2--2--2-2-2-.6:------------------0--0--0-0-0-.
Verse A1 ========
1:---|-----------------------------|2:---|-----------------------------|3:---|----------0-------------0----|4:---|----------0-------------0----|5:---|----0-1-2---------0-1-2------|6:-3-|--3----------3--3----------3-|
1:--------------------------.2:-------------2--2--0-0----.3:----------0--2--2--0-1----.4:----------0--2--2--0---2--.5:----0-1-2-----------------.6:--3-----------------------.
Verse A2 ========
1:----|-----------------------------------------|2:----|-----------------------------------------|3:----|--------------12------------------12-----|4:----|--------------12------------------12-----|5:----|-----12-13-14------------12-13-14--------|6:-15-|--15--------------15--15--------------15-|
1:------------------------------------.2:------------------14--14--12-12-----.3:--------------12--14--14--12-13-----.4:--------------12--14--14--12----14--.5:-----12-13-14-----------------------.6:--15--------------------------------.
Verse B1 ========
1:---|-------------------------------|2:---|-------------------------------|3:---|------------------4----------4-|4:---|---2-4--------2-4-5------2-4-5-|5:-3-|-4-----0--3-4--------3-4-------|6:---|-------------------------------|
1:-------------------------------|2:-------------------------------|3:-------------------------------|4:------2-4-2-----------2-4------|5:--3-4-------3-4-0-3-4-----0--3-|6:-------------------------------|
1:-------------------------------|2:-------------------------------|3:-------4----------4------------|4:---2-4-5------2-4-5------2-4-2-|5:-4--------3-4--------3-4-------|6:-------------------------------|
1:-------.2:-------.3:-------.4:-------.5:-3-4-0-.6:-------.
Verse B2 ========
1:---|-------------------------------|2:---|-------------------------------|3:---|-----2----------2-4--------2-4-|4:-1-|-2-4------1-2-4------1-2-4-----|5:---|-------4-----------------------|6:---|-------------------------------|
1:-------------------------------|2:-------------------------------|3:--------2---------------2------|4:--1-2-4---4-1-2---1-2-4------1-|5:----------------4---------4----|6:-------------------------------|
1:-------------------------------|2:-------------------------------|3:-----2-4--------2-4--------2---|4:-2-4------1-2-4------1-2-4---4-|5:-------------------------------|6:-------------------------------|
1:-------.2:-------.3:-------.4:-1-2---.5:-----4-.6:-------.
Chorus ======
1:-------------------------------|2:-------------------------------|3:-------------------------------|4:------------------2--2--2-2-2--|5:----------7-------2--2--2-2-2--|6:-(0)--------------0--0--0-0-0--|
1:-//12---//12-------------------|2:-//12---//12-------------------|3:--(14)---(14)------------------|4:------------------2--2--2-2-2--|5:------------------2--2--2-2-2--|6:------------------0--0--0-0-0--|
Bridge ======
1:----|---------------------------------------------|2:----|---------------------------------------------|3:----|-----12----12--------------12----12----------|4:-12-|--14-12-14-12-14----12--14-12-14-12-14----12-|5:-12-|--14----14----14-14-12--14----14----14-14-12-|6:----|-----------------12--------------------12----|
1:------------------------10----10----10-------|2:------------------//12-----12----12----12----|3:---------------------------------------------|4:--14-12-14-12-14--------------------------12-|5:--14----14----14--------------------------12-|6:---------------------------------------------|
1:-----------------------------------------------|2:------------------------------------------//12-|3:-----12----12--------------12----12------------|4:--14-12-14-12-14----12--14-12-14-12-14---------|5:--14----14----14-14-12--14----14----14-14------|6:-----------------12--------------------12------|
1:-10----10----10----10----10----10----.2:----12----12----12----12----12----12-.3:-------------------------------------.4:-------------------------------------.5:-------------------------------------.6:-------------------------------------.
End Riff 1 ==========
1:----|---------------------------------.2:-15-|--15-14--12-----15--15-14--12----.3:-16-|--16-14--12h13--16--16-14--12h13-.4:-14-|--14-14--12h14--14--14-14--12h14-.5:----|---------------------------------.6:----|---------------------------------.
End Riff 2 ==========
1:---|----------------------------.2:---|------------14b15--14--b15--.3:---|------------15b16--15--b16--.4:---|----------------------------.5:-7-|--7----7--------------------.6:---|----0----0------------------.
Tap to rate this tab
 
# A B C D E F G H I J K L M N O P Q R S T U V W X Y Z