Led Zeppelin - Early Days And Latter Days Vol 1 tab

Led Zeppelin
Early days (Album)
Tabbed by:Brian Gelvin
E-mail:rockin_vampire26@yahoo.com

Songs In Order:
 1.Good Times, Bad Times
 2.Babe I'm Gonna Leave You
 3.Dazed and Confused
 4.Communication Breakdown
 5.Whole Lotta Love
 6.What is and What Should Never Be
 7.Immigrant Song
 8.Since I've Been Loving You
 9.Black Dog
10.Rock and Roll
11.The Battle of Evermore (transcribed for Guitar)
12.When the Levee Breaks
13.Stairway to Heaven


***********************
*Good Times, Bad Times*
***********************

The 2 guitar lines will not be
completly lined up, but I'll do my best.
There are 3 guitars elctric 6-strings 1, 2, and 3
Standard tuning.

Key:
\=slide down
/=slide up
BB=bend 2 full steps
Bb=bend 1 and a half step
B=bend a full step
b=bend a half step
^=bend one-forth step
R=return bend
~=vibrato
x=finger mute
H=hammer
PM=palm mute
p=pull off
Intro:Guitar 1


|------------------------------------------------------------||9--9--------9--9--------9--9--------9--9--------9--9--------||9--9--------9--9--------9--9--------9--9--------9--9--------||9--9--------9--9--------9--9--------9--9--------9--9--------||7--7--------7--7--------7--7--------7--7--------7--7--------||------------------------------------------------------------|
| In the|Guitar 2|------------------------------------------------------------||------------------------------------------------------------||9--9--------9--9--------9--9--------9--9--------------------||9--9--------9--9--------9--9--------9--9--------9--9--------||7--7--------7--7--------7--7--------7--7--------7--7--------||0--0--------0--0--------0--0--------0--0--------0--0--------|
Verse 1:|----------------------------------------------------||9--9\-----------7---7-------------------9--9\-------||9--9\-----------7---7-------------------9--9\-------||9--9\---------7---7---7---4-7-----------9--9\-------||7--7\-------5-----------5-----4~~~5--6--7--7\-------||----------------------------------------------------||days of my youth I was told what it means to be a man.__
|
|----------------------------------------------------||----------------------------------------------------||9--9------------7---7-------------------9--9\-------||9--9----------7---7---7---4-7-----------9--9\-------||7--7--------5-----------5-----4~~~5--6--7--7\-------||0--0------------------------------------0--0\-------|
PM-||--------------------------------------------------------------------||----7---7-------------------9--9\---------------7-------------------||----7---7-------------------9--9\-----------7---7-7-----------------||--7---7---7---4-7-----------9--9\---------7---7---7---4-7-----------||5-----------5-----4~~~5--6--7--7\-------5-----------5-----4~~~5--6--||--------------------------------------------------------------------|| And now I've reached that age I've tried to do all those things the best I
|
|--------------------------------------------------------------------||----7---7-----------------------------------7---7-7-----------------||----7---7-------------------9--9\-----------7---7-7-----------------||--7---7---7---4-7-----------9--9\---------7---7-------4-7-----------||5-----------5-----4~~~5--6--7--7\-------5-----------5-----4~~~5--6--||----------------------------0--0------------------------------------|
|----------------------------------------------------------------------------------------||9--9\-----------------------------------9--9\-------------------------------------------||9--9\-----------7---7-------------------9--9\-----------7---7---------------------------||9--9\---------7---7---7---4-7-----------9--9\---------7---7---7---4-7-------------------||7--7\-------5-----------5-----4~~~5--6--7--7\-------5-----------5-----4~~~5/-6/-7~~~~~~-||----------------------------------------------------------------------------------------|
|can._ No mat-ter how I try find my way in-to the same old jam.| PM||---------------------------------------------------------------------------------------||--------------------------------------------------------7------------------------------||9--9\-----------7---7-------------------9--9\-----------7-----------------------9--9\--||9--9\---------7---7---7-----7-----------9--9\---------7---7---7---4-7-----------9--9\--||7--7\-------5-----------5-0---4~~~5--6--7--7\-------5-------5---5-----4~~~5--6--7--7\--||0--0------------------------------------0--0------------------------------------0--0---|
Chorus:|------------------------------------------------------------------------------------------||------------------------------------------------------------------------------------------||-----7---7-----------------------2--------------------------------------------------------||-------7---7---4-7-------------------------------------------------------2-2--2----7\-5/7-||0-5H---------5-----4~~~5--6----------------------------------------------0-0--0--0--------||-----------------------------4/5---------------------------------------0------------------|| Good times, bad times, you know I've had my share.___ Well, my
|
|----------------------------3/5--3--x-x----------------------------5\-x-x----10-----------||----------------------------3/5--5--x-x-7-12-12-10--10-10-0-3/5----5\-x-x-12-12----7-7-7\-||----7---7-------------------4/6--6--x-x-7-12-12-11--11-11-0-4/6----6\-x-x-12-12--7-7-7-7\-||0-7---7---7---4-7-----------5/7--7--x-x-7-12-12-12--12-12-0-5/7-7--7\-x-x-12-12--7-7-7-7\-||0-5---------5-----4~~~5--6--5/7--7--x-x-5-10-10-12--12-12-0-5/7-7--7\-x-x-10-10--5-5-5-5\-||----------------------------3/5--5------5-10-10-10--10-10---3/5-5--5\-----10--------------|
|----------------------------------------------------------||----------------------------------------------------------||--------------------------------------------------4\------||7/-9--9--9--9--9--9--9--7/9-9--9--9--7/9-9--9--9----------||--------------------------------------------------2\------||5/-7--7--7--7--7--7--7--5/7-7--7--7--5/7-7--7--7----------||woman left home for a brown eyed man But I still don't seem to care.___
|
|--------7-----------------------------7-------------------||--------7--14--14-14--12-12-12--------7-------------------||--------8--14--14-14--13-13-13--------8-------------------||--------9--14--14-14--14-14-14--------9----9--9--9--9--9\-||7--7----9--12--12-12--14-14-14--9--9--9----9--9--9--9--9\-||9--9-------12--12-12--12-12-12--7--7-------7--7--7--7--7\-| |__3__|
Guitars 1 & 2|--------------------------------------------------||--------------------------------------------------||--------11p9-11-x-4p2-4----------11p9-11--4p2-4p2-||--------11p9-11-x-4p2-4----------11p9-11--4p2-4p2-||4--4--------------------------4-------------------||2--2-----------------------2--2-------------------|Six-teen I fell in love with a girl as sweet as could be. It
|----------------------------------------------------||----------------------------------------------------||--------11p9-11--4p2-4-x----------11p9-11--4p2--4p2-||--------11p9-11--4p2-4-x----------11p9-11--4p2--4p2-||---4---------------------------4--------------------||2--2------------------------2--2--------------------|only took a couple of days 'till she was rid of me._ She
|---------------------------------------------------||---------------------------------------------------||--------11p9-11--4p2-4p2----------11p9-11--4p2-4p2-||--------11p9-11--4p2-4p2----------11p9-11--4p2-4p2-||---4---------------------------4-------------------||2--2------------------------2--2-------------------|swore that she would be all mine and love me'till the end, but
|-----------------------------------------------------||--------------------------------------------------*--||--------11p9-11--4-2-4-2----------11p9-11--4p2-4/(5)-| *() notes are played|--------11p9-11--4-2-4-2----------11p9-11--4p2-4/(5)-| by Gtr. 1 only.|---4--------------------------4----------------------||2--2-----------------------2--2----------------------|
when I whispered in her ear I lost another friend. Oh!Guitar 1|-------------------------------------------------------||4----4--4----------------------------------------------||4----4--4---2--2---1-1-----------4-4-----2-2-2---1-1---||4----4--4-2-2--2---2-2-0-4--4--4-4-4-0-2-2-2-2---2-2-0-||2----2--2-0------0-2-2---2--2--2-----0-0---0-0-2-2-2-0-||-----------------2-----------------------------0-------|
|Good times, bad times, you know I've had my share. Well, my|Guitar 2|-------------------------------------------0----0-0-0--||4-----4----4---2-2-2---0--------4----------2----0-0-0--||4-----4----4---2-2-2---1--------4-4-4-4----2----1-1-1--||4-----4----4---2-2-2---2--4--4--4-4-4-4----2----2-2-2--||2--2--2----2---0-0-0-2-2--2--2----2-2-2----0----2-2-2--||-------------0-------0-------------------0-----0-------|
|--------------7-7--------------------------------------------------------------||/6----6-------7-7----11-11-11-------------------------------------0------------||/6----6-------8-8----11-11-11--------------------------------------------------||/6----6----/9-9-9----11-11-11------------11--11--11--11----------------11------||/4----4----/9-9-9--9----9--9-----11--11--11--11--11--11--11--11\-------11------||-----------/7---7-------------9--9---9---9---9---9---9---9---9-\-------9-------||wo-man left home for a brown eyed man,__ but I still don't seem to care._____
|
|-------------------------------------------------------------------------------||4/6-6--6--6-6-12--x-10--10-10-10--------------------------------------------6--||4/6-6--6--6-6-11--x-11--11-11-11--------------------------------------------6--||4/6-6--6--6-6-11--x-11--11-11-11-9/11-11--11--11--11--11--11--11--11--11----6--||2/4-4--4--4-4-9---x-9---9--9--9--9/11-11--11--11--11--11--11--11--11--11----4--||---------------------------------7/9--9---9---9---9---9---9---9---9---9--------|
Solo:Guitar 1|-------12--------12-12----12--------12-------------------||----12--------12-------12--------12----------------------||14B-------14B----------------14b-------14BR12H----14-12--||-----------------------------------------------14--------||---------------------------------------------------------||---------------------------------------------------------|
|
|Guitar 2|--------------------------------------------------------||--------------------------------------------------------||----------------9-----------7--7--7---------------------||----------------9-----------7--7--7--7----7----7--------||7--------7------7---4/-5----5--5--5--7----7----7--------||0--------0---------------------------5----5----5--------|
|
|Guitar 3|--------------------------------------------------------||*-------------------------------------------------------||9\------------------------------------------------------||9\------------------------------------------------------||7\------------------------------------------------------||--------------------------------------------------------|*Gruadually slide on all of the guitar 3 parts.
|------------------------------------------------||---------------------------15-------------------||------12^----12-14-12-14b-----14--12H-14-12--0--||14-14-----14------------------------------------||------------------------------------------------||------------------------------------------------|
| |
|------------------------------------------------||------------------------------------------------||----------9-----------7---7---7-----------------||----------9-----------7---7---7---7---7---------||7------7--7---4/----5-5---5---5---7---7---------||0------0--------------------------5---5---------|
| |
|------------------------------------------------||------------------------------------------------||9\----------------------------------------------||9\----------------------------------------------||7\----------------------------------------------||------------------------------------------------|
|_____*_______||--|-------------|------------------||20BB-------------17-17-17~~~20-17--||-----------------------------------| *hold the bend then evenly release it.|-----------------------------------||-----------------------------------||-----------------------------------|
| |
|-----------------------------------||-----------------------------------||------9-------7--7--7--------------||------9-------7--7--7--7--7--7--7--||7--7--7---4/5-5--5--5--7--7--7--7--||0--0-------------------5--5--5--5--|
| |
|-----------------------------------||-----------------------------------||9\---------------------------------||9\---------------------------------||7\---------------------------------||-----------------------------------|
|____3___||---------------|*--*-*--|-------------------||20B--20--17----17-20-17H----17--------------||------------19-----------19----19-19B~x-x-x-||--------------------------------------x-x-x-||--------------------------------------------||--------------------------------------------|
| |
|--------------------------------------------||--------------------------------------------||--------9--------7--7--7--------------------||--------9--------7--7--7---7---7---7---7----||7---7---7----4/5-5--5--5---7---7---7---7----||0---0----------------------5---5---5---5----|
| |
|--------------------------------------------||--------------------------------------------||9\------------------------------------------||9\------------------------------------------||7\------------------------------------------||--------------------------------------------|
|-------------------------------------------------------------12----12-||-------------------------------------------12----12-15p12-15-12-15----||-------------------------12----12-14p12-14----14----------------------||------12----12-14p12-14H-12-14----------------------------------------||14-14----14-----------------------------------------------------------||----------------------------------------------------------------------|
| |
|----------------------------------------------------------||----------------------------------------------------------||------------9------------7----7----7----------------------| The 2nd and 3rd Gtrs.|------------9------------7----7----7----7----7----7----7--| arn't going to be matched|7-----7-----7-------4/5--5----5----5----7----7----7----7--| up perfectly w/the 1st Gtr.|0-----0---------------------------------5----5----5----5--| but is played evenly.
| |
|----------------------------------------------------------------------||----------------------------------------------------------------------||9\--------------------------------------------------------------------||9\--------------------------------------------------------------------||7\--------------------------------------------------------------------||----------------------------------------------------------------------|
|15B--15~15^~----------17b-17B-17b-17B-17b-17B-||------------17-15^-17-------------------------||----------------------------------------------||----------------------------------------------||----------------------------------------------||----------------------------------------------|
| |
|----------------------------------------------||----------------------------------------------||---------9----------7---7---------------------||---------9----------7---7----7---7---7---7----||7----7---7----4/5---5---5----7---7---7---7----||0----0-----------------------5---5---5---5----|
| |
|----------------------------------------------||----------------------------------------------||9\--------------------------------------------||9\--------------------------------------------||7\--------------------------------------------||----------------------------------------------|
|17B-15----15-17--17p16--17--16-17p16-17B-15b--||-------17-------------------------------------||----------------------------------------------||----------------------------------------------||----------------------------------------------||----------------------------------------------|
| |
|----------------------------------------------||----------------------------------------------||-------------9----------------7--7------------||-------------9----------------7--7--7----7----||7------7-----7-------4-/-5----5--5--7----7----||0------0--------------------------------------|
| |
|----------------------------------------------||----------------------------------------------||9\--------------------------------------------||9\--------------------------------------------||7\--------------------------------------------||----------------------------------------------|
|----------------------------------------||17~~17~17~17-15B-17BB--------15~~~~~~~~-||----------------------------------------||----------------------------------------||----------------------------------------||----------------------------------------|
| |
|---------------------------------------||---------------------------------------||------9--------7--7--------------------||------9--------7--7---7----------------||7--7--7---4/5--5--5---7----------------||0--0------------------5----------------|
| |
|---------------------------------------||---------------------------------------||9\-------------------------------------||9\-------------------------------------||7\-------------------------------------||---------------------------------------|
Guitar 1|----------------------------------||----------------------------------||----------------------------------||7---7---7---7----------7---7/-5---||-------------------0--------------||----------------------------------|
|Good times, bad times,_____ you|Guitar 2|---5--5--x-x-----x-10------10-10--||---5--5--x-x-12--x-10------10-10--||---6--6--x-x-12--x-11------11-11--||---7--7--x-x-12--x-12------12-12--||7--7--7--x-x-10----12------12-12--||5--5--5------------10------10-10--|
|------------------------------------||------------------------------------||----------------------2---2---2--2--||5-7H---7---7--7-------2---2---2--2--||------------------0-----------0--0--||------------------------------------||know I've had my share.__ Well, my
|
|-----5-5-x-x------------------------||-----5-5-x-x-12-12-12-12-10-10--10--||-----6-6-x-x-12-12-12-12-11-11--11--||-----7-7-x-x-12-12-12-12-12-12--12--||7----7-7-----10-10-10-10-12-12--12--||5------------------------10-10--10--|
|-----------------------------||-----------------------------||-----------4~~~~~~4--4-4-4---||4--4-------4~~~~~~4--4-4-4---||2--2--2~~~~2~~~~~~2--2-2-2---||-----------------------------||woman left home for a brown eyed man,_ but I
|
|------7--x-x-------x-------x-||------7--x-x-14-14-x-12-12-x-||------8--x-x-14-14-x-13-13-x-||------9--x-x-14-14-x-14-14-x-||9--9--9------12-12---14-14---||7--7---------12-12---12-12---|
|----------------------------------||----------------------------------||4--4--4--4--4--4--4--4--4---------||4--4--4--4--4--4--4--4--4---------||2--2--2--2--2--2--2--2--2---------||----------------------------------||still don't seem to care._________
|
|----------------------------------||----------------------------------||----------------------------------||7/-9------------------------------||7/-9--9--9--9--9--9--9------------||5/-7--7--7--7--7--7--7--7---------|
|12-----------------------------------------------------------------------||---15p12----12----12-----------------------------------------------------||---------14----14----14-12-14Hp12----12----------------------------------||----------------------------------14----14p12-14p12----12----------------||----------------------------------------------------14----14p12-14p12p10-||-------------------------------------------------------------------------|
| |
|-------------------------------------------------------------------------||-------------------------------------------------------------------------||9---9\-------------------------------------------------------------------||9---9\-------------------------------------------------------------------||7---7\-------------------------------------------------------------------||0---0--------------------------------------------------------------------| Gruadually slide down
|-----------------------------------||-----------------------------------||-----------------------------------||-----------------------------------||12p10------------------------------||------12-10~~~~10-10~~~~~~~~10/11--|
| |
|-----------------------------------||-----------------------------------||----7---7-7------------------------||--7---7-7-7---4-7------------------||5-----------5-----4~~~~5---6-------||-----------------------------------|
|-------------------15B--15B--15B--15B--15B--15~~~~-||17~~~~~~-----------15B--15B--15B--15B--15B--15~~~~-||---------------------------------------------------||---------------------------------------------------||---------------------------------------------------||---------------------------------------------------||I don't care__ what the neigh-bors____ say,______
|
|--------------------------------------------------||--------------------------------------------------||9--9----------------------7-----------------------||9--9----------------7---7---7---7---4-7-----------||7--7------------------5-------5---5-----4~~~~5--6-||0--0----------------------------------------------|
|15~~~~~~~~~~~~~~~~~~~~~~--------------------------||15~~~~~~~~~~~~~~~~~~~~~~--------------------------||--------------------------------------------------||--------------------------------------------------||--------------------------------------------------||--------------------------------------------------||I'm gon-na love____ you each and ev-'ry day.______
|
|--------------------------------------------------||--------------------------------------------------||9--9----------------------7---7-------------------||9--9--------------------7---7---7---4-7-----------||7--7------------------5-----------5-----4~~~~5--6-||0--0----------------------------------------------|
|--------------------------------------------------------------||-----------------------------20B--20B-20b-20B-20b-20B-20b-20B-||--------------------------------------------------------------||--------------------------------------------------------------||--------------------------------------------------------------||12~~~~~~~~~~~-------------------------------------------------||I know what it means to be a-lone,____
|
|--------------------------------------------------------------||--------------------------------------------------------------||9--9-----------------------------7-----7----------------------||9--9-----------------------------7-7-7-----4-7----------------||7--7------------------------0-5H---------5-----4~~~~~~~5--6---||0--0----------------------------------------------------------|
|--------------------0------------19BB-----------20BB----------||20B--20~~~~~~~---0---------------19Bb---20BB------------------||--------------------------------------------------------------||--------------------------------------------------------------||--------------------------------------------------------------||--------------------------------------------------------------||I sure wish I was at home.____________
|
|--------------------------------------------------------------||--------------------------------------------------------------||9--9-------------------------------7--------------------------||9--9-----------------------------7---7---7---4-7--------------||7--7---------------------------5-------5---5-----4~~~~~5--6---||0--0----------------------------------------------------------|
Begin Fade|14b---------------------14b-14b---14b-------------------------||----14B-14----14-14~~---14b-------14b--14~~~~~~~~~~~~~~~~-----||-----------14--------14----------------14~~~~~~~~~~~~~~~~14---||--------------------------------------------------------------||--------------------------------------------------------------||--------------------------------------------------------------|| You can feel the beat__ with-in__ my
|
|--------------------------------------------------------------||--------------------------------------------------------------||9--9-----------------------7---7------------------------------||9--9---------------------7---7---7---4-7----------------------||7--7-------------------5-----------5-----4~~~~~~4--5---6------||0--0----------------------------------------------------------|
|-------------------------------------------------------------------||15-----------------------------------------------------------------||---14p12-------14p12-----------------------------------------------||---------14-12-------14p12-14p12----12-----------------------------||---------------------------------14----14p12\10-12p10----10-12Hp10-||------------------------------------------------------12-----------||heart._______
|
|-------------------------------------------------------------------||-------------------------------------------------------------------||9--9---------------------------------------------------------------||9--9---------------------------------------------------------------||7--7---------------------------------------------------------------||0--0---------------------------------------------------------------|
|-------------------------------------------------||-------------------------------------------------||-------------------------------------------------||-------------------------------------------------||-------------------------------------------------||10~~~~~~~5b---5~~~~~~~~~~~~~~~~~~~~~~~~~~~~~~~~~-||Realize sweet babe we ain't never gonna part.__
|
|------------------------------------------------||------------------------------------------------||----7---7-------------------9--9----------------||--7---7---7---4-7-----------9--9----------------||5-----------5-----4~~~5--6--7--7----------------||----------------------------0--0----------------|
|--------17B--17\15----17-15-17-15-17--15-15/16~~~~~~~---||-------------------17-----------------------------------||--------------------------------------------------------||--------------------------------------------------------||--------------------------------------------------------||--------------------------------------------------------|
|
| Fade out|--------------------------------------------------------||--------------------------------------------------------||-----7---7------------------------9---9-----------------||-------7---7---4-7----------------9---9-----------------||0-5H---------5-----4~~~~~~5---6---7---7-----------------||----------------------------------0---0-----------------|
************************** *Babe I'm Gonna Leave You* ************************** There are four parts acoustic one and two and an electric guitar and a slide guitar. Standard Tuning for all Guitars except slide. Tuning 1=D KEY: ~=vribrato ()=optional note /=slide up \=slide down %=eigth rest h=hammer D.S. :S: al Coda=Go back to :S: (+)=Coda P=pull off T=use thumb B=bend 1 step R=Bend 1 step then return X=mute b=bend 1/2 step
Moderately slow with a halftime feel (A quarter note=138)INTRO:Acoustic guitar 14/4 time.|-------0---------|--------------------|--------------------||---------------1-|-------3----------1-|-------3----------1-||---2-2-------2---|-----0----------0---|-----2----------2---||---2-------2-----|---2----------2-----|---0----------0-----||0--------0-------|--------------------|--------------------||-----------------|-3----------3-------|-2----------2-------|
|--------------------|-------3----------0-|-------3----------0-||-------1----------0-|--------------------|--------------------||-----2----------1---|-----2----------2---|-----0----------0---||---3----------2-----|---2----------2-----|---2----------2-----||--------------------|-0----------0-------|--------------------||-1----------0-------|--------------------|-3----------3-------|
|--------------------|--------------------||-------3----------1-|-------1----------0-||-----2----------2---|-----2----------1---||---0----------0-----|---3----------2-----||--------------------|--------------------||-2----------2-------|-1----------0-------|
Verse 1|-------3----------0-|--------------------|--------------------||--------------------|-------3----------1-|-------3----------1-||-----2----------2---|-----0----------0---|-----2----------2---||---2----------2-----|---2----------2-----|---0----------0-----||-0----------0-------|--------------------|--------------------||--------------------|-3----------3-------|-2----------2-------|
Babe, ba - by,|--------------------|-------3----------0-|--------------------||-------1----------0-|--------------------|-------3----------1-||-----2----------1---|-----2----------2---|----------------0---||---3----------2-----|---2----------2-----|---2-2--------2-----||--------------------|-0----------0-------|--------------------||-1----------0-------|--------------------|-3----------3-------|
ba - by,___ I'm__ gon-na leave_you.___|--------------------|--------------------|-------3----------0-||-------3----------1-|-------1----------0-|--------------------||-----2----------2---|-----2----------1---|-----2----------2---||---0----------0-----|---3----------2-----|---2----------2-----||--------------------|--------------------|-0----------0-------||-2----------2-------|-1----------0-------|--------------------|
I said___ ba _ by___|--------------------|-------------------|--------------------||-------3----------1-|-------3---------1-|-------1----------0-||-----0----------0---|-----2---------2---|-----2----------1---||---2----------2-----|---0---------0-----|---3----------2-----||--------------------|-------------------|--------------------||-3----------3-------|-2---------2-------|-1----------0-------|
you___ know___ I'm|-------3----------1-|-------3----------1-|--------------------||--------------------|--------------------|-------3----------1-||-----2----------2---|-----0----------0---|-----2----------2---||---2----------2-----|---2----------2-----|---0----------0-----||-0----------0-------|--------------------|--------------------||--------------------|-3----------3-------|-2----------2-------|
gon-na leave__ you.__|--------------------|--------------------|--------------------||-------1----------1-|-------3----------1-|-------3----------0-||-----2----------1---|-----2----------2---|-----1----------1---||---3----------2-----|---3----------3-----|---2----------2-----||--------------------|--------------------|--------------------||-1----------0-------|-1----------1-------|-0----------0-------|
I'll_____________ leave you_ when the sum-mer time,___|--------------------|--------------------|-------0----------0-||-------3----------1-|-------3----------0-|--------------------||-----2----------2---|-----1----------1---|-----2----------2---||---3----------3-----|---2----------2-----|---2----------2-----||--------------------|--------------------|-0----------0-------||-1----------1-------|-0----------0-------|--------------------|
leave you when the sum-mer comes a rol - lin,__________|-------3----------0-|--------------------|--------------------||--------------------|-------3----------1-|-------1----------0-||-----0------0-2hp0--|-----2----------2---|-----2----------1---||---2----------------|---0----------0-----|---3----------2-----||--------------------|--------------------|--------------------||-3---------3--------|-2----------2-------|-1----------0-------|
leave__ you when the sum-mer comes a -|0--0-0--0---0---0-|0-0-0-0-0-0-0--||1--1-1--1---8---6-|6-6-6-6-6-6-6-0||2--2-2--2-%-9-%-7-|7-7-7-7-7-7-7-0| Repeat 4 times|2--2-2--2---9---7-|7-7-7-7-7-7-7-0||0--0-0--0---0---0-|0-0-0-0-0-0-0-0||------------------|---------------|
|long._______ :S:|Acoustic 2 To Coda (+) (second time through).|0-------0---0----0--|--0--0--0--0--0--0---||5-------5---12---10-|--10-10-10-10-10-10-0||5--5-5--5-%-12-%-10-|--10-10-10-10-10-10-0| Repeat 4 times|7--7-7--7---14---12-|--12-12-12-12-12-12-0||0--0-0--0---0----0--|--0--0--0--0--0--0---||--------------------|---------------------| To Coda (+)(+) (third time)
|------------------0|-------------------|-------------------||-------------------|-------3----------1|-------1----------1||-----2----------2--|-----0----------0--|-----2----------2--||---2----------2----|---2----------2----|---0----------0----||0----------0-------|-------------------|-------------------||-------------------|-3----------3------|-2----------2------|
Ba - ba,__ ba,__ ba,___ ba,____ ba,______ ba -|-------------------|-------3----------0|-------------------||-------1----------1|-------------------|-------3----------1||-----2----------2--|-----2----------2--|-----0----------0--||---3----------3----|---2----------2----|---2----------2----||-------------------|-0----------0------|-------------------||-1----------0------|-------------------|-3----------3------|
by, mmm ba - by I don'twanna leave you___|-------------------|-------------------|-------3----------0||-------3----------1|-------1----------0|-------------------||-----2----------2--|-----2----------1--|-----2----------2--||---0----------0----|---3----------2----|---2----------2----||-------------------|-------------------|-0----------0------||-2----------2------|-1----------0------|-------------------|
I ain't__ jok-in'__ wo-man I've gor to____ ram - ble,|-------------------|-------------------|-------------------||-------3----------1|-------1----------1|-------1----------0||-----0----------0--|-----2----------2--|-----2----------1--||---2----------2----|---0----------0----|---3----------2----||-------------------|-------------------|-------------------||-3----------3------|-2----------2------|-1----------0------|
oh_______ yeah,______________|-------3----------0|-------------------|-------------------||-------------------|-------3----------1|-------3----------1||-----2----------2--|-----0----------0--|-----2----------2--||---2----------2----|---2----------2----|---0----------0----||-0----------0------|-------------------|-------------------||-------------------|-3----------3------|-2----------2------|
Ba - by, ba - by___ I won't| be there,________Acoustic two FILL | |------7h--10--12-----7h| |----8h-------------8h--| |--7h------------%-9----| |-9---------------------| |-----------------------| |-----------------------|
Acoustic 1|-------------------|-------------------|-------------------||-------1----------1|-------3----------1|-------3----------0||-----2----------1--|-----2----------2--|-----1----------1--||---3----------2----|---3----------3----|---2----------2----||-------------------|-------------------|-------------------||-1----------0------|-1----------1------|-0----------0------|
|real - ly__ got to ram - ble,_____|Acoustic 2|-10--12---8-10hp8\7--8---7-8hp7\|5~~~~~~~~~|~~~~~~~~~~~~||--------------------------------|----------|------------||--------%-----------------------|----------|------------||--------------------------------|----------|------------||--------------------------------|----------|------------||--------------------------------|----------|------------|
Acoustic 1|-------------------|-------------------||-------3----------1|-------3----------0||-----2----------2--|-----1----------1--||---3----------3----|---2----------2----||-------------------|-------------------||-1----------1------|-0----------0------|
I can hear it cal - lin' me the way it|-------0-----------|-------------------||------------------3|-------1----------1||-----2----------2--|-----0----------2--||---2----------2----|---2----------3----||-0----------0------|-------------------||-------------------|-3----------3------|
used to do_____|------------------0|-------------------||-------1-----------|-------1----------0||-----2----------2--|-----2----------1--| D.S. :S: al Coda|---3----------3----|---3----------2----||-------------------|-------------------||-3----------3------|-1----------0------|
I can hear it cal - lin' me back home__Coda 1 (+) Acoustic 1|-------------------|-------------------||-------5----------9|-------8-------6---||-----4----------8--|-----7-------7-----||---2-----2/7--7----|---7-------7-------||0--------0(0)------|0--------0---------||-------------------|-------------------|
|Acoustic 2|-------------------|-------------------||-----------------8-|-------8-------6---||-----4/5-------9---|-----7-------7-----||---2-------3/7-----|---7-------7-------||0--------0---------|0--------0---------||-------------------|-------------------|
|-------------------|-------------------||------------------8|-------8-------6---||-----4/5--------9--|-----7-------7-----||---2--------3/7----|---7-------7-------||0---------0--------|0--------0---------||-------------------|-------------------|
| Repeat these two measures 2 times.|-------------------|-------------------||------------------8|-------8-------6---||-----4/5--------9--|-----7-------7-----||---2-------3/7-----|---7-------7-------||0--------0---------|0--------0---------||-------------------|-------------------|
|-------------------|-------------------|-------------------||-------------------|-------------------|-------------------||9/14--14--9--14--14|9/12--12--9--12--12|9/11--11--9--11--11||9/14--14--9--14--14|9/12--12--9--12--12|9/11--11--9--11--11||7/12--12--7--12--12|7/10--10--7--10--10|7/9---9---7--9---9-||-------------------|-------------------|-------------------|
|Ba - by C'mon, Babe!|Electric Guitar|-------------------|-------------------|-------------------||-------------------|-------------------|-------------------||-------------------|-------------------|-------------------||---7--7-----7----7-|---5--5-----5----5-|---4--4-----4----4-||---7--7-----7----7-|---5--5-----5----5-|---4--4-----4----4-||0--5--5--0--5----5-|0--3--3--0--3----3-|0--2--2--0--2----2-|
|-------------------||-------------------||9/10--10--9--10--10||9/10--10--9--10--10||7/8---8---7--8---8-||-------------------|
| I'm gonna leave you girl,__ oh,__ Ba - by, you__ know, I've real-ly got to leave_____ ya,____|-------------------||-------------------||-------------------||---1--1-----2----2-||---1--1-----2----2-||0--3--3--0--0----0-| Repeat these 4 measures 4 times.
|-------------------|-------------------||-------------------|-------------------||9/11--11--9--11-11-|-------------------||9/11--11--9--11-11-|9/10--10--9--10-10-||7/9---9---7--9---9-|7/8---8---7--8---8-||-------------------|-------------------|
| oh, I can hear it cal- lin' me,__| I said don't you hear it__ cal-lin' me the way it used to do.__|-------------------|-------------------||-------------------|-------------------||-------------------|-------------------||---3--3-----3----3-|---2--2-----2----2-||---3--3-----3----3-|---2--2-----2----2-| Repeat these 2 measures 2 times.|0--1--1--0--1----1-|0--0--0--0--0----0-| D.S. :S: al Coda
Coda (+)(+)|-------0-----------|-------------------|-------------------||---------------1---|-------3----------1|-------3----------1||-----2-------2-----|-----0----------0--|-----2----------2--||---2-------2-------|---2----------2----|---0----------0----||0--------0---------|-------------------|-------------------||-------------------|-3----------3------|-2----------2------| Acoustic 2|
|
|-------------------| |-----------5----6--| |-------------------| |-------------------| |-------------------| |-------------------|
|-------------------|-------3----------0|-------------------||-------1----------0|-------------------|-------3----------1||-----2----------1--|-----2----------2--|-----0----------0--||---3----------2----|---2----------2----|---2----------2----||-------------------|-0----------0------|-------------------||-1----------0------|-------------------|-3----------3------|
|
|-------------------|------------------|-------------------||8--6--5-6hp-5\3-5-3|1-3hp1p0----------|------1------------||-------------------|---------2--2~~~~~|-%--2---%-%------2-||-------------------|------------------|-------------------||-------------------|------------------|-------------------||-------------------|------------------|-------------------|
|-------------------|-------------------||-------3----------1|-------1----------0||-----2----------2--|-----2----------1--||---0----------0----|---3----------2----||-------------------|-------------------||-2----------2------|-1----------0------|
|
|---------0-------------|------------------------------||0--1--3-----3p1p0-1p0-0|------------------------------||---------------------2-|2p0---------------------------||-----------------------|----3p2p0-2p02p0--0--0--------||-----------------------|-----------------3--3-3-1-3hp1||-----------------------|------------------------------|
|-------3----------1|-------1----------0|-------0----------0||-------------------|-------------------|-------------------||-----2----------2--|-----0----------0--|-----2----------2--||---2----------2----|---2----------2----|---0----------0----||-0----------0------|-------------------|-------------------||-------------------|-3----------3------|-2----------2------|
| I know_________ I know_________ I know I'm nev-er nev-|-------------------||-------------------||-------------------||-------------------||0------------------||-------------------|
|-------0----------0|-------------------|-------------------||-------------------|-------1----------1|-------1----------1||-----2----------1--|-----2----------2--|-----0----------0--||---3----------2----|---2----------2----|---2----------2----||-------------------|-0----------0------|-------------------||-1----------0------|-------------------|-3----------3------|
er never never never gonna leave you, babe,___|-------------------|-------------------|-------3----------1||-------1----------1|-------1----------0|-------------------||-----2----------2--|-----2----------1--|-----2----------2--||---0----------0----|---3----------2----|---2----------2----||-------------------|-------------------|-0----------0------||-2----------2------|-1----------0------|-------------------|
I've got-ta go a-way form this place|-------0----------1|-------0-----------|-------0----------0||-------------------|------------------3|-------------------||-----0----------0--|-----2----------2--|-----2----------1--||---2----------2----|---0----------0----|---3----------2----||-------------------|-------------------|-------------------||-3----------3------|-2----------2------|-1----------0------|
I got-ta quit___ you, yeah, oh________|-------------------|-------------------|-------------------||-------1----------1|-------1----------1|-------1----------1||-----2----------2--|-----0----------0--|-----2----------2--||---2----------2----|---2----------2----|---0----------0----||-0----------0------|-------------------|-------------------||-------------------|-3----------3------|-2----------2------|
___ Ba - by ba - by ba - by|-------------------|0--0--0--0--0---0--|3--3--3P0---3---3--||-------1----------0|0--1--1--0--1---1--|1--1--1-----1---1--||-----2----------1--|0--2--2--0--2---2--|0--0--0-----0---0--||---3----------2----|0--2--2-----2---2--|2--2--2-----2---2--||-------------------|0--0--0-----0---0--|0--0--0-----0---0--||-1----------0------|-------------------|-------------------| ba - by,__ | ba - by,___ ba - by,___
| Electric guitar |-------------------|-------------------| |-------------------|-------------------| |-------------------|-------------------| |---7--7-----7----7-|---5--5-----5----5-| |---7--7-----7----7-|---5--5-----5----5-| |0--5--5--0--5----5-|0--3--3--0--3----3-|
|0--2--2P0---2---2--|---0--0-----0---0--|0--0--0--0--0---0--||1--1--1-----1---1--|---1--1-----0---0--|1--1--1--0--1---1--||2--2--2-----2---2--|---2--2-----1---1--|2--2--2--0--2---2--||0--0--0-----0---0--|---3--3-----2---2--|2--2--2--0--2---2--||-------------------|------------2---2--|0--0--0-----0---0--||-------------------|1T----------0---0--|-------------------|
| ba - by,_____ oh,__________|-------------------|-------------------|-------------------||-------------------|-------------------|-------------------||-------------------|-------------------|-------------------||---4--4-----4----4-|---3--3-----2----2-|---7--7-----7----7-||---4--4-----4----4-|---3--3-----2----2-|---7--7-----7----7-||0--2--2--0--2----2-|0--1--1--0--0----0-|0--5--5--0--5----5-|
|0--3--3P0---3---3--|0--2--2P0---2---2--|---0--0-----0---0--||1--1--1-----1---1--|1--1--1-----1---1--|---1--1-----0---0--||0--0--0-----0---0--|2--2--2-----2---2--|---2--2-----1---1--||2--2--2-----2---2--|0--0--0-----0---0--|---3--3-----2---2--||0--0--0-----0---0--|-------------------|------------2---2--||-------------------|-------------------|1T----------0---0--|
| don't you hear it cal-lin' him?______|-------------------|-------------------|-------------------||-------------------|-------------------|-------------------||-------------------|-------------------|-------------------||---5--5-----5----5-|---4--4-----4----4-|---3--3-----2----2-||---5--5-----5----5-|---4--4-----4----4-|---3--3-----2----2-||0--3--3--0--3----3-|0--2--2--0--2----2-|0--1--1--0--0----0-|
|-------0-----------|-------------------|-------------------||------------------3|-------1----------3|-------1----------1||-----2----------2--|-----0----------0--|-----2----------2--||---2----------2----|---2----------2----|---0----------0----||0-----------0------|-------------------|-------------------||-------------------|-3----------3------|-2----------2------|
oh,______ wo - man,______|-------------------|-------3----------1|-------0-----------||-------1----------0|-------------------|------------------3||-----2----------1--|-----2----------2--|-----0----------0--||---3----------2----|---2----------2----|---2----------2----||-------------------|-0----------0------|-------------------||-1----------0------|-------------------|-3----------3------|
| wo-man, I know,_____ | slide guitar Tuning (1)= D |---------19-19/17--|-17/19---19~~~~~~~~| |-------------------|-------------------| |-------------------|-------------------| |-------------------|-------------------| |-------------------|-------------------| |-------------------|-------------------|
Alternate fingering|-------0-----------|-------0----------0|-------------------||------------------3|-------------------|-------8----------6||-----2----------2--|-----2----------1--|-----5----------5--||---0----------0----|---3----------2----|---7----------7----||-------------------|-------------------|-0----------0------||-2----------2------|-1----------0------|-------------------|
| I know,____ it feels good to have you back a-|-------------------|-------------------|-------------------||-------------------|-10--10--10--10--10|-10~~~~~~~~~~~~~~~~||-------------------|-------------------|-------------------||-------------------|-------------------|-------------------||-------------------|-------------------|-------------------||-------------------|-------------------|-------------------|
|-------------------|-------------------|-------0----------0||-------6----------5|-------5----------3|-------------------||-----4----------4--|-----2----------2--|-----2----------1--||---5----------5----|---4----------4----|---3----------2----||-------------------|-------------------|-------------------||-3----------3------|-2----------2------|-1----------0------|
|gain and not know_ that one day baby, it's real-ly gon-na|-------------------|-------------------|-------------------||-------------------|---------------10-/|12-----12h\10/12---||-------------------|-------------------|-------------------||-------------------|-------------------|-------------------||-------------------|-------------------|-------------------||-------------------|-------------------|-------------------|
|-------------------|-------------------|-------------------||-------8----------6|-------5----------6|-------5----------3||-----5----------5--|-----4----------4--|-----2----------2--||---7----------7----|---5----------5----|---4----------4----||-0----------0------|-------------------|-------------------||-------------------|-3----------3------|-2----------2------|
| grow_ yes it is,_ we gonna go walkin' through the park|-------------------|-------------------|-------------------||10/12-\-10~~~~~~~~~|~~~~~~-------------|-------------------||-------------------|-------------------|-------------------||-------------------|-------------------|-------------------||-------------------|-------------------|-------------------||-------------------|-------------------|-------------------|
|------------------0|0--0--0--0--0---0--|3--3--3P0---3---3--||-----3-0----------0|0--1--1--0--1---1--|1--1--1-----1---1--||---2------------1--|0--2--2--0--2---2--|0--0--0-----0---0--||---3----------2----|0--2--2--0--2---2--|2--2--2-----2---2--||-------------------|0--0--0-----0---0--|0--0--0-----0---0--||-1----------0------|-------------------|-------------------|
| ev-ry' day.___ | Come what| |Electric|-------------------|-------------------|-------------------||--------10\8/10\8\5|-------------------|-------------------||-------------------|-------------------|-------------------||-------------------|---7--7-----7----7-|---5--5-----5----5-||-------------------|---7--7-----7----7-|---5--5-----5----5-||-------------------|0--5--5--0--5----5-|0--3--3--0--3----3-|
C|0--2--2P0---2----2-|---0--0-----0---0--|0--0--0--0--0---0--||1--1--1-----1----1-|---1--1-----0---0--|0--1--1--0--1---1--||2--2--2-----2----2-|---2--2-----1---1--|0--2--2--0--2---2--||0--0--0-----0----0-|---3--3-----2---2--|0--2--2--0--2---2--||-------------------|------------2---2--|0--0--0---------0--||-------------------|1T----------0---0--|-------------------|
| may____ every day_____ oh_________ come what_|-------------------|-------------------|-------------------||-------------------|-------------------|-------------------||-------------------|-------------------|-------------------||---4--4-----4----4-|---3--3-----2----2-|---7--7-----7----7-||---4--4-----4----4-|---3--3-----2----2-|---7--7-----7----7-||0--2--2--0--2----2-|0--1--1--0--0----0-|0--5--5--0--5----5-|
|3--3--3p0---3---3--|0--2--2p0---2---2--|---0--0-----0---0--||1--1--1-----1---1--|1--1--1-----1---1--|---1--1-----0---0--||0--0--0-----0---0--|2--2--2-----2---2--|---2--2-----1---1--||2--2--2-----2---2--|0--0--0-----0---0--|---3--3-----2---2--||0--0--0-----0---0--|-------------------|------------2---2--||-------------------|-------------------|1T----------0---0--|
|_ come__ what___ come what may__ I'm gonna leave you|-------------------|-------------------|-------------------||-------------------|-------------------|-------------------||-------------------|-------------------|-------------------||---5--5-----5----5-|---4--4-----4----4-|---3--3-----2----2-||---5--5-----5----5-|---4--4-----4----4-|---3--3-----2----2-||0--3--3--0--3----3-|0--2--2--0--2----2-|0--1--1--0--0----0-|
Alternate back|-------0-----------|-------------------|-------2-----------||------------------1|-------3----------1|------------------1||-----2----------2--|-----0----------0--|-----2----------2--||---2----------2----|---2----------2----|---0----------0----||0-----------0------|-------------------|-------------------||-------------------|-3----------3------|-2----------2------|
|go a-way__________|___________________________ |Acoustic 2 |rake |--7--10-8-8-7-8-7-----|-------------------| |-8----------------10-8|7-8-7---7----------| |9---------------------|------9------7-----| |----------------------|-------------------| |----------------------|-------------------| |----------------------|-------------------|
|-------------------|`------3----------1|-------0----------1||-------1----------0|-------------------|-------------------||-----2----------1--|-----2----------2--|-----0----------0--||---3----------2----|---2----------2----|---2----------2----||-------------------|-0----------0------|-------------------||-1----------0------|-------------------|-3----------3------|
| oh,______________|-------------------|-------------------|-------------------||-------------------|-------------------|-------7B--7B------||-4-/-7-/5-4--5--4-2|-4-----------------|--------------8p7p5||-------------------|---2---------------|-------------------||-------------------|-------------------|-------------------||-------------------|-------------------|-------------------|
|-------0-----------|-------0----------0|-------3----------1||------------------3|-------------------|-------------------||-----2----------2--|-----2----------1--|-----2----------2--||---0----------0----|---3----------2----|---2----------2----||-------------------|-------------------|-0----------0------||-2----------2------|-1----------0------|-------------------|
|
|-------------------|---------------------|-------------------||-------------------|---------------------|-------------------||--7~~~~~~~---7R----|-7-7--7-5h-X-5h-5---7|-5-----------------||-------------------|---------------------|----7--------------||-------------------|---------------------|-------7-----------||-------------------|---------------------|-------------------|
|-------0----------1|-------0-----------|-------0-----------||-------------------|------------------3|------------------0||-----0----------0--|-----2----------2--|-----2----------1--||---2----------2----|---0----------0----|---3----------2----||-------------------|-------------------|-------------------||-3----------3------|-2----------2------|-1----------0------|
| It was real - ly|-------------------|-------------------|-------------------||-------------------|-------------------|-------------------||-------------0-----|0------------------|--------0-------0--||-------0-1/2---1/2-|--1/2~~~~~~~~~-----|-0-1/2-----1/2-----||-0-1/3-------------|-------------------|-------------------||-------------------|-------------------|-------------------|
|-------------------|-------------------|-------------------||-------1----------1|-------1----------1|-------1----------1||-----2----------2--|-----0----------0--|-----2----------2--||---2----------2----|---2----------2----|---0----------0----||-0----------0------|-------------------|-------------------||-------------------|-3----------3------|-2----------2------|
| really good_ you__ made me| rake rake rake rake rake rake rake rake|-------------------|--7-10---7-10--7-10--7-|10--7-10---7-10---7-10---7-||-------------------|-8------8-----8-----8--|---8------8------8------8--||-------------------|9------9-----9-----9---|--9------9------9------9---||-0/2P---0----------|-----------------------|---------------------------||------3---3--0-----|-----------------------|---------------------------||-------------------|-----------------------|---------------------------|
(ooh,) (ooh,)______________________________ NOTE:really quietly, get louder|-------------------|-------------------|-------3----------0||-------1----------0|-------1----------1|-------------------||-----2----------1--|-----2----------2--|-----0----------0--||---3----------2----|---2----------2----|---2----------2----||-------------------|-0----------0------|-------------------||-1----------0------|-------------------|-3----------3------|
|happy evry' single day,____|10-8-7-8-7----7--------|---------------|-------------------||-----------10--10-8-7-8|--10-10\-------|-------------10--10||-----------------------|---------------|-------------------||-----------------------|---------------|-------------------||-----------------------|---------------|-------------------||-----------------------|---------------|-------------------|
|-------------------|-------------------||-------1----------1|-------1----------0||-----2----------2--|-----2----------1--||---0----------0----|---3----------2----||-------------------|-------------------||-2----------2------|-1----------0------|
| But now,___ I've got to go a -|-------------------|-------------------||10---/---3---1--10-|-10~~~~~~~--10--10b||-------------------|-------------------||-------------------|-------------------||-------------------|-------------------||-------------------|-------------------|
|0--0--0--0--0---0--|3--3--3P----3---3--|0--2--2P----2---2--||0--1--1--0--1---1--|1--1--1-----1---1--|1--1--1-----1---1--||0--2--2--0--2---2--|0--0--0-----0---0--|2--2--2-----2---2--||0--2--2--0--2---2--|2--2--2-----2---2--|0--0--0-----0---0--||0--0--0-----0---0--|0--0--0-----0---0--|-------------------||-------------------|-------------------|-------------------|
|way_______________ oh,___|Electric Repeat these 4|-------------------|-------------------|-------------------| measures 4x.|-------------------|-------------------|-------------------||-------------------|-------------------|-------------------||---7--7-----7----7-|---5--5-----5----5-|---4--4-----4----4-||---7--7-----7----7-|---5--5-----5----5-|---4--4-----4----4-||0--5--5--0--5----5-|0--3--3--0--3----3-|0--2--2--0--2----2-|
|---0--0-----0---0--||---1--1-----1---1--||---2--2-----2---2--||---3--3-----2---2--||------------0---0--||1T-----------------|
|oh____|-------------------||-------------------||-------------------||---3--3-----2----2-||---3--3-----2----2-||0--1--1--0--0----0-|
Free Time Baby, baby, baby, baby.|1------------------|-------------------|0-------------------||1------------------|-------------------|5-------------------||2------------------|-------------------|7-------------------|up stroke|3------------------|-------------------|6-------------------|chord.|3------------------|-------------------|7-------------------||1------------------|-------------------|0-------------------|
That's when it's cal-lin' me.________ up storke* *snap|1------------------|*------------------------------|-------------||1------------------|0--*---------------------------|-------------||2------------------|X--2-4-p2-4hp2-4hp2-4h---p---2-|--4hp2--4h~~~||3------------------|2------------------------------|-------------||3------------------|2------------------------------|-------------||1------------------|0------------------------------|-------------|
I said that's when it's callin'_____ me______ back___ home___|---5--5-5----5--5-5|5--5--5-5-5--5--5-5||5--5--5-5-4--4--4-4|3--3--3-3-3--3--3-3||-------------------|-------------------||-------------------|-------------------||4--4--4-4-3--3--3-3|2--2--2-2-1--1--1-1||-------------------|-------------------|
_________________________________________|------------------0|------------------0|-------------|0----||-------0--------1--|-------0--------1--|-------0-----|0----||-----5--------2----|-----5--------2----|-----5-------|5----||---2---------------|---2---------------|---2---------|2----||0-----------0------|-0----------0------|-0-----------|0----||-------------------|-------------------|-------------|-----|
|Electric |-----|
|10~~~| |-----| |-----| |-----| |-----|
******************** *Dazed and Confused* ******************** This song has 3 guitars. Electric guitars 1, 2, and 3 Page uses a violin bow in this song and I will tell you when to use and when to stop. Standard tuning for all guitars. Key: BB=bend 2 step bb=bend 1 1/2 step B=bend 1 step b=bend 1/2 step ^=bend 1/4 step N=bend behind the nut 2 step m=bend behind the nut 1 1/2 step n=bend behind the nut 1 step R=return bend p=pull off /=slide up \=slide down h=hammer x=finger mute D.S. :S: al coda=Go back to :S: (+)=Coda *=natural harmonics (PM)=palm mute (SM)=semi palm mute ~=vibrato !=Look at side note
(use neck pickup)Intro:Guitar 1 * * ! * *|--------------------12-------------5------------------------------|switch to|----------------12--------------5---------------------------------| bridge|--------------------------------------------12-B-R-B-R-B-R-B-R~~~~| pickup|------------------------------------------------------------------||------------------------------------------------------------------||------------------------------------------------------------------|
Use wah wah throughout Been dazed and con- * * * * * * *|--------12--------5----------------------------------------------|!8va|----12---------5------5------------------------12------!12-------| higher|---------------------------5-------------------12------!12-------||-----------------------------------------------------------------||-----------------------------------------------------------------||-----------------------------------------------------------------|
fused for so long it's not true.Wanted a woman,never bargained for you.Lots of people talkin' few of thme know____ :S:|---------------------
Tap to rate this tab
 
# A B C D E F G H I J K L M N O P Q R S T U V W X Y Z