Led Zeppelin - Led Zeppelin 2 tab

Tracks
1.Whole Lotta Love
2.What Is And What Should Never Be
3.The Lemon Song
4.Thank You
5.Heartbreaker
6.Living Lving Maid(She's Just A Woman)
7.Ramble On
8.Moby Dick
9.Bring It On Home
________________________________________________________________________

Whole Lotta Love

Guitar 1:Electric w/distortion
Guitar 2:Solo

Tuning: (E,A,D,G,B,e)


Gtr. 1 Intro: e-|--------------------------|-----------------------------------|-B-|--------------------------|-----------------------------------|-G-|--------------------------|-----------------------------------|-D-|----------------0)----0)--|--9-------9-------9-------9--------|-A-|----------------5-----5---|--7-------7-------7-------7--------|-E-|-------------7-----7------|--0-0-0-0-0-0-0-0-0-0-0-0-0-0-0-0--|- * Bend 1/4 step
e-|-----------------------------------|-----------------------------------|-B-|-----------------------------------|-----------------------------------|-G-|-----------------------------------|-----------------------------------|-D-|--9-------9-------9-9----0)----0)--|--9-------9-------9-------9--------|-A-|--7-------7-------7-7----5-----5---|--7-------7-------7-------7--------|-E-|--0-0-0-0-0-0-0-0-0-0-7-----7------|--0-0-0-0-0-0-0-0-0-0-0-0-0-0-0-0--|-
Verse:e-|-----------------------------------|-----------------------------------|-B-|-----------------------------------|-----------------------------------|-G-|-----------------------------------|-----------------------------------|-D-|--9-------9-------9-9----0)----0)--|--9-------9-------9------0)----0)--|-A-|--7-------7-------7-7----5-----5---|--7-------7-------7------5-----5---|-E-|--0-0-0-0-0-0-0-0-0-0-7-----7------|--0-0-0-0-0-0-0-0-0-0-7-----7------|-
e-|-----------------------------------|-----------------------------------|-B-|-----------------------------------|-----------------------------------|-G-|-----------------------------------|-----------------------------------|-D-|--9-------9-------9------0)----0)--|--9-------9-------9------0)----0)--|-A-|--7-------7-------7------5-----5---|--7-------7-------7------5-----5---|-E-|--0-0-0-0-0-0-0-0-0-0-7-----7------|--0-0-0-0-0-0-0-0-0-0-7-----7------|-
e-|-----------------------------------|-----------------------------------|-B-|-----------------------------------|-----------------------------------|-G-|-----------------------------------|-----------------------------------|-D-|--9-------9-------9------0)----0)--|--9-------9-------9------0)----0)--|-A-|--7-------7-------7------5-----5---|--7-------7-------7------5-----5---|-E-|--0-0-0-0-0-0-0-0-0-0-7-----7------|--0-0-0-0-0-0-0-0-0-0-7-----7------|-
e-|-----------------------------------|-----------------------------------|-B-|-----------------------------------|-----------------------------------|-G-|-----------------------------------|-----------------------------------|-D-|--9-------9-------9------0)----0)--|--9-------9-------9------0)----0)--|-A-|--7-------7-------7------5-----5---|--7-------7-------7------5-----5---|-E-|--0-0-0-0-0-0-0-0-0-0-7-----7------|--0-0-0-0-0-0-0-0-0-0-7-----7------|-
Chorus: e-|-----------------------------------|---------------------------------|-B-|-----------------------------------|----------------------7--7-7--7--|-G-|-----------------------------------|----------------------7--7-7--7--|-D-|--9-------9-------9------0)----0)--|--9-------9-------9---7--7-7--7--|-A-|--7-------7-------7------5-----5---|--7-------7-------7---5--5-5--5--|-E-|--0-0-0-0-0-0-0-0-0-0-7-----7------|--0-0-0-0-0-0-0-0-0-0------------|-
Gtr. 1e-|---------------------------------|---------------------------------|-B-|----------------------7--7-7--7--|----------------------7--7-7--7--|-G-|----------------------7--7-7--7--|----------------------7--7-7--7--|-D-|--9-------9-------9---7--7-7--7--|--9-------9-------9---7--7-7--7--|-A-|--7-------7-------7---5--5-5--5--|--7-------7-------7---5--5-5--5--|-E-|--0-0-0-0-0-0-0-0-0-0------------|--0-0-0-0-0-0-0-0-0-0------------|-
| | | | Gtr. 2 w/ slide | | e-|---------------------------------|---------------------------------|-B-|---------------------------------|---------------------------------|-G-|------9\-------------------------|------9\-------------------------|-D-|------9\-------------------------|------9\-------------------------|-A-|---------------------------------|---------------------------------|-E-|---------------------------------|---------------------------------|-
e-|---------------------------------|-----------------------------------|-B-|----------------------7--7-7--7--|-----------------------------------|-G-|----------------------7--7-7--7--|-----------------------------------|-D-|--9-------9-------9---7--7-7--7--|--9-------9-------9------0)----0)--|-A-|--7-------7-------7---5--5-5--5--|--7-------7-------7------5-----5---|-E-|--0-0-0-0-0-0-0-0-0-0------------|--0-0-0-0-0-0-0-0-0-0-7-----7------|-
| | | | | | e-|---------------------------------|-----------------------------------|-B-|---------------------------------|-----------------------------------|-G-|------9\-------------------------|------9\---------------------------|-D-|------9\-------------------------|------9\---------------------------|-A-|---------------------------------|-----------------------------------|-E-|---------------------------------|-----------------------------------|-
Repeat from verse Guitar solo:
Gtr. 1e-|----------------------------------------------------------|-B-|--9----9--------------------------------------------------|-G-|--9----9--------------------------------------------------|-D-|--9----9--------------------------------------------------|-A-|--7----7--------------------------------------------------|-E-|----------------------------------------------------------|-
| | | Gtr. 2 1 1 |e-|--------------------12------------------------------------|-B-|--------------)-12------15p12----------------------)~~~~--|-G-|------------14-----------------15p14p12--14--12--14-------|-D-|----------------------------------------------------------|-A-|----------------------------------------------------------|-E-|----------------------------------------------------------|-
e-|--------------------------------------------------------|-B-|--9----9------------------------------------------------|-G-|--9----9------------------------------------------------|-D-|--9----9------------------------------------------------|-A-|--7----7------------------------------------------------|-E-|--------------------------------------------------------|-
| | | |e-|--------------------------------------------------------|-B-|-----------------3--------------------------------------|-G-|------------2/4-----4p2p0--4p2p0------------------------|-D-|----------------------------------2p0-----2p0-----------|-A-|---------------------------------------2-------2-0h2----|-E-|--------------------------------------------------------|-
e-|-----------------------------------------------|-B-|--9----9---------------------------------------|-G-|--9----9---------------------------------------|-D-|--9----9---------------------------------------|-A-|--7----7---------------------------------------|-E-|-----------------------------------------------|-
| | | 1 1 1 1 | e-|--------------------12----)---)---15---)~~~----|-B-|--------------)-12------15--15-------15--------|-G-|------------14---------------------------------|-D-|-----------------------------------------------|-A-|-----------------------------------------------|-E-|-----------------------------------------------|-
e-|----------------------------------------------------|-B-|--9----9--------------------------------------------|-G-|--9----9--------------------------------------------|-D-|--9----9--------------------------------------------|-A-|--7----7--------------------------------------------|-E-|----------------------------------------------------|-
| | | 2 | e-|--------------------)''''''''\----------------------|-B-|------------17----20------------17------20p17~~~----|-G-|------------------------------------18--------------|-D-|----------------------------------------------------|-A-|----------------------------------------------------|-E-|----------------------------------------------------|-
e-|-----------------------------------------------------|-B-|--9----9---------------------------------------------|-G-|--9----9---------------------------------------------|-D-|--9----9---------------------------------------------|-A-|--7----7---------------------------------------------|-E-|-----------------------------------------------------|-
| 1 | | ) |e-|----------------19----19--18--17---------------------|-B-|------------17--------------------20p17--20p17~~~----|-G-|-----------------------------------------------------|-D-|-----------------------------------------------------|-A-|-----------------------------------------------------|-E-|-----------------------------------------------------|-
e-|---------------------------------------------------|-B-|--9----9-------------------------------------------|-G-|--9----9-------------------------------------------|-D-|--9----9-------------------------------------------|-A-|--7----7-------------------------------------------|-E-|---------------------------------------------------|-
| | | 1/2 1/2 1/2 1 | e-|----------------------)---)---)----)--19-----------|-B-|------------17--19--19--19--19---19-------17~~~----|-G-|---------------------------------------------------|-D-|---------------------------------------------------|-A-|---------------------------------------------------|-E-|---------------------------------------------------|-
Then play verse and chorus again, then there is a break with no instruments just vocals. At the end of the break play B5 and A5. At the end the main riff changes to this, but the main riff is still played sometimes. Guitar 1
e-|---------------------------|---------------------------------|-B-|---------------------------|---------------------------------|-G-|---------------------------|---------------------------------|-D-|-----------------0)-----7--|--9-------9-------9-----0)----7--|-A-|-----------------5------5--|--7-------7-------7-----5-----5--|-E-|--------------7------7-----|--0-0-0-0-0-0-0-0-0-0-7----7-----|-
e-|----------------------------------|----------------------------------|-B-|----------------------------------|----------------------------------|-G-|----------------------------------|----------------------------------|-D-|--9-------9-------9------0)----7--|--9-------9-------9------0)----7--|-A-|--7-------7-------7------5-----5--|--7-------7-------7------5-----5--|-E-|--0-0-0-0-0-0-0-0-0-0-7-----7-----|--0-0-0-0-0-0-0-0-0-0-7-----7-----|-
___________________________________________________________________________ What Is And What Should Never Be Guitar 1: Clean Electric Guitar 2: Electric w/dist
Standard tuningElectric Gutiar 1 w/clean tone Rhythm Figure 1|-------------------------|0--0--0--0--0--0--0--0----||-------------------------|7--7--7--7--7--7--7--7--0-||-------------------------|6--6--6--6--6--6--6--6--0-||-------------------------|5--5--5--5--5--5--5--5----||-------------------------|--------------------------||-------------------------|--------------------------| And if I say_ to you to - mor-row,
|-----0---7---0----0-----0--0--0--0--0--0--0--0--0----||7--7-0-7-7-7-0-7--0--7--0--7--7--7--7--7--7--7--7--0-||7--7-7-7-7-7-7-7--7--7--7--6--6--6--6--6--6--6--6--0-||6--6-6-6---6-6-6--6--6--6--5--5--5--5--5--5--5--5----||-----------------------------------------------------||-----------------------------------------------------| take my hand child, come with me,__
|-----0---7---0----0-----0--0--0--0--0--0--0--0--0----||7--7-0-7-7-7-0-7--0--7--0--7--7--7--7--7--7--7--7--0-||7--7-7-7-7-7-7-7--7--7--7--6--6--6--6--6--6--6--6--0-||6--6-6-6---6-6-6--6--6--6--5--5--5--5--5--5--5--5----||-----------------------------------------------------||-----------------------------------------------------| it's to a cas-tle__ I will take you,__
End of Rhythm Figure 1|-----0---0-7-----0-----0--0--0--0--0--0--0--0--------||7--7-0-7-0-0--7--0--7--0--7--7--7--7--7--7--7-(7)/---||7--7-7-7-7-7--7--7--7-----6--6--6--6--6--6--6-(6)/---||6--6-6-6-6-6--6--6--6--6--5--5--5--5--5--5--5-(5)/---||-----------------------------------------------------||-----------------------------------------------------| well, what's to be they say will_ be.__ Ah,
Rhythm Figure 2with distortion|---------------------------------------------------------------||----------------------------------------------------3---2--x-x-||----------------------------------------------------2---2--x-x-||5-7h~~--7p5-5----5~~------5p0------4~~4-0-4p0-x---0-4---2--x-x-||0-----0-0----(0)-0---0--0-0----x-0-0--0-0-0---x-0-0-----0--x-x-||---------------------------------------------------------------| (pm........) (pm) (pm.)catch the wind_see us spin,sail away,leave today,way up high in the sky_ Hey oh,_then the
|-----------------------------------------------------------------||-------------------------------------------------------3---2-----||-------------------------------------------------------2---2--2--||5-7h-------7p5-----5~~-----5p0-x---4~----4-4p0-x-x--2--4---2--2--||0-----0~-0-0----0--0--0--0-0---x-0---0-0-0-0---x-x--0--0---0--0--||-----------------------------------------------------------------| (pm) (pm) (pm) (pm...) (pm)wind won't blow, you really should'nt go, it only goes to show_ that_
*|----------------------------------------0----------------------------||4--4-4-4-4--4----4-----4-----4-----4--x-0---4-----(2)----------------||4--4-4-4-4--4----4-----4-----4-----4--x-1---4------3-----------------||4--4-4-4-4--4----4-----4-----4-----4----2---4------4-----------------||2--2-2-2-2--2-0-----0-------------------2---2------4-----------------||--------------------------4-----4-------0-----(0)--2-----------------|you will be mine__ by taking our__ time.__ Ooh________________
End of Rhythm Figure 2|---------------------------------------------------||(5)------------------------------------------------||-6-------------------------------------------------||-7-------------------------------------------------||-7-------------------2-----------------------------||-5---------------3b--0-----------------------------|__ And if you say to me to -
Verse 2:clean tone|0--0--0--0--0--0--0-----0--0--0--0--0--0--0--0--0--0--0--0--0--0--0--0--||7--7--7--7--7--7--7--0--5--5--5--5--5--5--5--5--7--7--7--7--7--7--7--0--||6--6--6--6--6--6--6--0--7--7--7--7--7--7--7--7--6--6--6--6--6--6--6--6--||5--5--5--5--5--5--5-----6--8--8--8--8--8--8--8--5--5--5--5--5--5--5--5--||------------------------------------------------------------------------||------------------------------------------------------------------------|mor-row, oh,what fun it all___would be.__
|------0-----0-----0-----0--0--0--0--0--0--0--0-----------------------0--||5--0-----0-----0-----0--7--7--7--7--7--7--7--0--7--0--7--7-----0--7--0--||7--7-----7-----7-----7--6--6--6--6--6--6--6--6--7--7--7--7-----7--7--7--||6--6-----6-----6-----6--5--5--5--5--5--5--5--5--6--6--6--6-----6--6--6--||------------------------------------------------------------------------||------------------------------------------------------------------------| Then what's to stop us pret-ty ba - by____ but what is and
Distorted|0--0--0--0-----0------------------------------------------||7--7--7--7-----7------------------------------------------||6--6--6--6-----6------------------------------------------||5--5--5--5-----5-------5-7h~~----7-5-----5~~----5p0-x-----||-----------------------0-----0-0-0---(0)-0--0-0-----x--0--||----------------------------------------------------------| (pm...) (pm) (pm.) (pm)what should never be. I catch the wind_see us spin,sail away,leave today,_
|--------------------------------------------------------------||------------------3---2---------------------------------------||----------------2-2---2---------------------------------------||4-4-4-4-4p0-x---2-4---2------5p7~~----7-5----5------5p0-x-----||0-0-0-0-0---x-0---0---0--0-0-0----0-0-0--(0)-0--0-0-----x--0--||--------------------------------------------------------------| (pm.) (pm.) (pm.) (pm) (pm.) (pm)way up high,in the sky Hey, oh then the wind_won't blow, you really should'nt go. It
|----------------------------------------------------------||------------------3---2--------------4------4-4-4---4-4-4-||----------------2-2---2------4---4---4------4-4-4---4-4-4-||4-4-4-4-4p0-x---2-4---2------4---4---4------4-4-4---4-4-4-||0-0-0-0-0---x-0---0---0--0-0-2---2-2----2-0-------0-------||----------------------------------------------------------| (pm.) (pm.)only goes to show__ that you will be mine__ by
|-------------------0---------------------------------------------------------------||--4-4-4---4--------0---4-----2---------------(5)-----------------------------------||--4-4-4---4--------1---4-----3----------------6------------------------------------||--4-4-4---4--------2---4--2--4----------------7------------------------------------||-------------------2---2--0--4----------------7-------------------2----------------||4-------4---4--(0)-0---------2----------------5--------------3b---0----------------|tak - ing our_ time._ Ooh.______________
Guitar Solo:Electric Guitar 2w/slideand clean tone With Rhythm Figure 1|---------------------|--------------------------------------------------------------||-------5---7/9--7/9--|7\2--2~~~~~~~~~~~2-\---------5--7/9----7/9------7\2~~~~~~~~~~-||--4--6---------------|----(2)---------(2)\----4--6----7/9----7/9------7\2~~~~~~~~~~-||---------------------|--------------------------------------------------------------||---------------------|--------------------------------------------------------------||---------------------|--------------------------------------------------------------|
8va______|-----12~~~~10--x-----------------------------------------------12p15^-12---------------------||7-12-------------12--11-12h--11-12h-10---10/14---(14)~~~~--12------------12-10/12-10-8--10~--||---------------------------------------------------------------------------------------------||---------------------------------------------------------------------------------------------||---------------------------------------------------------------------------------------------||---------------------------------------------------------------------------------------------|
End Figure 1|With Rhythm Figure 2|---------------|-----------------------------------------------------------------------||10/14-14\------|-----14-14----14-14\---------14-14-14\---------------------------------||---------------|-----14-14----14-14\------14----14-14\------14~14~---14~14~----14(14)\-||---------------|7-14-------14-14-14\-5/14~------14-14\-4/14-------14~------12--14-14-\-||---------------|-----------------------------------------------------------12----------||---------------|-----------------------------------------------------------------------|
|------------------------------------------------------------------------------------||-----14~---14(14)\---------14----14-(14)---------14-----14--------------------------||-----------14(14)\------14----14-14-(14)------14----14-----14-------------14-(14)\--||7-14----14~14(14)\-5/14----------14-(14)-4/14-----------------12--(12)\---14-(14)\--||--------------------------------------------------------------12--(12)\-------------||------------------------------------------------------------------------------------|
|-----------------------------------------------------------------------------------------||--------16~---16~---(16)---------16------16-16----------16----16------16-16\9------------||-----16~---16~---16~(16)------16----(16)-16-16-------16----16----(16)-------9---16-(16)\-||9/16---------------------7/16-------------------6/16------------------------9---16-(16)\-||-----------------------------------------------------------------------------------------||-----------------------------------------------------------------------------------------|
|--------------------------------------------------------------------------||--16/17----16--14~~-------14\12/14-(14)~14\12/14~12/14--12/14---12\-------||-----------------------14-------------------------------------------------||-------------------14-----------------------------------------------------||--------------------------------------------------------------------------||--------------------------------------------------------------------------|
Verse 3: End Figure 2|Guitar 1|----------------------------|0--0--0--0--0--0--0--0----0--0-0-0-7---0-0--0--0--0--||(9)\------------------------|7--7--7--7--7--7--7--7--0-7--7-5-7-7-7-0-7--0--7--0--||(9)\------------------------|6--6--6--6--6--6--6--6--6-7--7-7-7-7-7-7-7--7--7--7--||(9)\------------------------|5--5--5--5--5--5--5--5--5-6--6-6-6---6-6-6--6--6--6--||----------------------------|-----------------------------------------------------||----------------------------|-----------------------------------------------------| So if you wake up with the sun-rise and all your dreans are
|0--0--0--0--0--0--0--0----0--0-0-0-7---0-0--0--0--0--0--0--0--0--0--0--0--0----||7--7--7--7--7--7--7--7--0-7--7-5-7-7-7-0-7--0--7--0--7--7--7--7--7--7--7--7--0-||6--6--6--6--6--6--6--6--6-7--7-7-7-7-7-7-7--7--7--7--6--6--6--6--6--6--6--6--6-||5--5--5--5--5--5--5--5--5-6--6-6-6---6-6-6--6--6--6--5--5--5--5--5--5--5--5--5-||-------------------------------------------------------------------------------||-------------------------------------------------------------------------------|still as new._ And hppiness is what you need so bad,___
|0--0-0-0-7---0-0--0--0--0--0--0--0--0--0--0--0-----||7--7-5-7-7-7-0-7--0--7--0--7--7--7--7--7--7--7-----||7--7-7-7-7-7-7-7--7--7--7--6--6--6--6--6--6--6-----||6--6-6-6---6-6-6--6--6--6--5--5--5--5--5--5--5-----||---------------------------------------------------||---------------------------------------------------|Girl, the answer lies__ with you___yeah I
With Rhythm Figure 2 (stop Figure at *)Distorted|---------------------------------------------------------------------||----------------------------------------------------------3---2------||-----------------------------------x----------------------2---2------||5-7h------7p5-5------5~~------5p0--x---4~~4-0-4p0-x-----0-4---2--x-x-||0-----0-0-0------(0)-0---0--0-0------0-0--0-0-0---x--0--0-----0--x-x-||---------------------------------------------------------------------| (pm............) (pm) (pm)Catch the wind,see us spin,sail away,leave today,way up high in the sky_Hey, Oh, but the
|--------------------------------------------------------------------||----------------------------------------------------------3---2-----||----------------------------------------------------------2---2--2--||5-7h-------7p5-----5~~-------5p0-x---4~------4-4p0-x-x-2--4---2--2--||0-----0--0-0----0--0----0--0-0---x-0----0--0-0-0---x-x-0--0---0--0--||--------------------------------------------------------------------| (pm) (pm) (pm) (pm)wind won't blow,we really should'nt go, it only goes to__show__Yeah__that
|----------------------------------------0----------------------------||4--4-4-4-4--4----4-----4-----4-----4----0---4------(2)---------------||4--4-4-4-4--4----4-----4-----4-----4----1---4-------3----------------||4--4-4-4-4--4----4-----4--------------x-2---4-------4----------------||2--2-2-2-2--2-0-----0-----------------x-2---2--(0)--4----------------||--------------------------4-----4-------0-----------2----------------|you will be mine_ by tak-ing our_time.__ Ooh_______________
|-------------------------------------------------------------||(5)-----------------------------------------------9-9--------||-6-------------------------------------9-9--------9-9--------||-7-------------------------------------9-9--------9-11-------||-7--------------------2----------------9-11------------------||-5--------------3b----0--------------------------------------|____
|--------------------------------------------------------------------------------||--------7---------------------9----9-9--------------------7---------------------||--7---7-7-----9-(9)-(9)-----9-9----9-9--------------7---7-7------9-(9)-(9)------||7-7---7-9-----9--9---9---x--9-9----9-11-----------7-7---7-9-x----9--9---9---x-x-||7-9-----------7--7---7---x--9-11------------------7-9-------x----7--7---7---x-x-||-------------(0)-9---0------------------------------------------(0)-0---0-------|
|-------------------------------------------------------------------||----------9-9--------------------------------7-7---------9--9------||9-(9)-x-x-9-9--x-x-x-x-x-x-x-x-x-------7-(x)-7-7-x-------9--9------||9-(9)-x-x-9-11-x-x-x-x-x-x-x-x-x-------7-(x)-7-9-x-----9-9--9--x-x-||9-11h-x-x------x-x-x-x-x-x-x-x-x---7/9-9-(x)-----x-----7-7--7--x-x-||---------------------------------0-----------------0-x-0-0--0----x-| Hey___ Ho____ Well,the
|------------------------------------------------------------------||--------9-9-9-------------------------------7-7---------9--9------||9-(9)-x-9-9-9--x-x-x-x-x-x-x-x-x(7)-7-7-x-x-7-7-x-------9--9------||9-(9)-x-9-9-11-x-x-x-x-x-x-x-x-x-7--7-7-x-x-7-9-x-----9-9--9--x-x-||9-11h-x--------x-x-x-x-x-x-x-x-x-9--7-9-x-x-----x-----7-7--7--x-x-||--------------------------------------------------0-x-0-0--0----x-|wind whon't blow,and you really shoul'nt go,well it only goes to show. Oh_ oh oh
|-------------------------------------------------------------||-------9-9--x--------------------------7--------------9--9---||9-9----9-9--x-x-x-x-x-x-x-x-x-x-7-7~~x-7-7-x-----9-9--9--9---||9-9----9-11-x-x-x-x-x-x-x-x-x-x-7-7~~x-7-9-x---9-9-9--9--9-9-||9-11----------x-x-x-x-x-x-x-x-x-7-9~~x-----x-7-7-7-7--7--7-9-||---------------------------------------------0---0-0--0--0---|Catch the wind,we're gonna see you spin,we're gonna sail_ leave to day_
|------------------------------------------------------------------||-------9-9------------------------------7-7--------------9--9-----||9-9-~~~9-9--x-x-x-x-x-x-x-x-x-9\-7-7--x-7-7(7)----(9)-9--9--9-----||9-9-~~~9-11-x-x-x-x-x-x-x-x-x-9\-7-7--x-7-9p7----9-9--9--9--9-----||9-11~~~-----x-x-x-x-x-x-x-x-x----7-9--x--------7-7-7--7--7--7--9--||-----------------------------------------------0---0--0--0--0-----| Ah,du du du, mm ba, ba, mm du_oh (pm)
|-------------------------------------------------------------||---------9-9------------------------------7(7)-------9--9----||9(9)-~~x-9-9--x-x-x-x-x--x-x-x----7-------7-7----9---9--9----||9-9--~~x-9-11-x-x-x-x-x--x-x-x----7-7-7-7-7-9----9-9-9--9----||9-11h~~x------x-x-x-x-x--x-x-x-7--7-9-9-9------7-7-7-7--7----||------------------------------(0)--------------0---0-0--0----|Ma Ma Ma Ma Ma Ma Yeah!__ Evry'-
|---------------------------------------------------------------||-------x-9-9-----------------------------7-7-7-------9--9--9---||9(9)---x-9-9--x-x-x-x-x-x-x-x-x----7-7~~~7-7-7-----9-9--9--9---||9-9------9-11-x-x-x-x-x-x-x-x-x(7)-9-9~~~7-9-7-----9-9--9--9---||9-11h---------x-x-x-x-x-x-x-x-x-7--7-9~~~------7-7-7-7--7--7-9-||--------------------------------7--------------0-0---0--0--0---| (pm)body I know seems to know me well,but ah they better know gonna move like hell_
|-----------------------------------------------------------------||----------9-9-------------------------------7-7--------9--9--9---||9-9-------9-9--x-x-x-x-x--x-x-(x)---7-7-7---7-7------9-9--9--9---||9-9-----9-9-11-x-x-x-x-x--x-x-(x)---7-7-7-7-7--------9-9--9--9---||9-11-11--------x-x-x-x-x--x-x-(x)-7-7-9-9-7------7-7-7-7--7--7-9-||-------------------------------------------------0-0---0--0--0---| (pm)Ah, baby, baby, baby, baby, baby, baby,_ Ho, I love_ya!
Fade out|-----------------------------------------------------------||-------9-9-------------------------------------9-9--9--9---||9-9-~~~9-9--(x)-x-x--x--x-x-x--7(7)~~7-7-7-----9-9--9--9---||9-9-~~~9-11-(x)-x-x--x--x-x-x--7(7)~~7-9-7-----9-9--9--9---||9-11~~~-----(x)-x-x--x--x-x-x--7-9h~~------7-7-7-7--7--7-9-||-------------------------------------------0-0------0--0---| (pm)Baby, baby, babe!___ Oh,____ I love__ ya__
__________________________________________________________________________ The Lemon Song Standard Tuning Gtr I (E A D G B E) - 'Jimmy Page - Rhythm / Lead w/dist' Gtr II (E A D G B E) - 'Jimmy Page - Lead w/dist'
Intro Q=92 4/4 Gtr I ~ ~~~~~~~|------------------|------------------||-0-0-0-0-0--------|-8----8-(8)s14\---||------------------|-7--x-7-(7)s13\---||------------------|-6--x-6-(6)s12\---||------------------|-7--x-7-(7)s13\---||-0-0-4-4-5-5-7\-0-|------------------|
~ ~~~~~~ ~~|-------------------|-------------------------------||---0---0-0---------|-------8-(8)-----12----12-12\--||-------------------|-7-x-x-7-(7)-----12----12-12\--||-------------------|-6-x-x-6-(6)-/12-12----12-12\--||-------------------|-7-x-x--------------14---------||-0-0-3s4-4-5-5-7-0-|-------------------------------|
~|-------------------|----------------------------------||-------0-0-0-0-0---|-8-----8-(8)\-------3-------------||-------------------|-7-x-x-7-(7)\-0-2h4---0-4p2p0-----||-------------------|-6-x-x-6-(6)\-----------------2p0-||-------------------|-7-x-x-7-(7)\---------------------||-0-0-3s4-4-5-5-7S0-|----------------------------------|
|---------------------|---------------------|||-----------0-0-(0)---|-8-----8-(8)-(8)/----|||---------------------|-7-x-x-7-(7)-(7)/----|||---------------------|-6-x-x-6-(6)-(6)/----|||---------------------|-7-x-x-7-(7)-(7)/----|||-0-0-3s4-4-5-5--7\-0-|---------------------||
Verse 1 ~|--------------------|-------------------|--------------------||-------0-0-0-0-0----|------8-(8)--(8)\--|-------0-0-0-0------||--------------------|-7--x-7-(7)--(7)\--|--------------------||--------------------|-6--x-6-(6)--(6)\--|--------------------||--------------------|-7--x-7-(7)--(7)\--|--------------------||-0-0-3s4-4-5-5-7\-0-|-------------------|-0-0-3s4-4-5-5-7\-0-|
~ ~ ~|--------------------------|--------------------|---------------------------||-8----8-(8)---------------|--------------------|---------------------------||-7--x-7-(7)---------------|-----------0-0------|-2-------------------------||-6--x-6-(6)-----5-(5)-----|--------------------|-2----------2--(2)---------||-7--x-7-(7)-5h7-------5h7-|-0-0-3s4-4-5-5-7\-0-|-0--x----------------------||--------------------------|--------------------|----x-3b5==(3)-(3)r(3)-3---|
~ ~~~~~~~ ~|--------------------|---------------------|-------------------------------||-------0-0-0-0------|-8-x--8-(8)\---------|------------3-----3-----3------||--------------------|-7-x--7-(7)\---------|--------2-----2-----2-----2----||--------------------|-6-x--6-(6)\---------|-------------------------------||--------------------|-7-x--7-(7)\----0--1-|-2--(2)---2-----2-----2-----0--||-0-0-3s4-4-5-5-7\-0-|-------------4-------|-------------------------------|
Gtrs I, II ~~~~~~ ~~~~~~~|-----------------------------------|--------------------------------------------------||-2-----/5-(5)-----------8-----10---|----15b17==(15)-(15)-15r(15)-15-12-12----12-------||---0----------0---0-(0)---0------0-|--------------------------------------14----12b13-||-----------------------------------|--------------------------------------------------||-----0----------0-----------0------|--------------------------------------------------||-----------------------------------|-0------------------------------------------------|
~~~~~~~|-------------------------------------------|||-------------------------------------------|||-------------12----------------------------|||-14-12-13-14----14-12-(12)----------12-----|||---------------------------12-13-14----14\-|||-------------------------------------------||
Verse 2 Gtr I ~|--------------------|-------------------|------------------||-------0-0-0--------|-8----8-(8)--(8)/--|-----0------------||--------------------|-7--0-7-(7)--(7)/--|------------------||--------------------|-6--0-6-(6)--(6)/--|------------------||--------------------|-7----7-(7)--(7)/--|------------------||-0-0-3s4-4-5-5-7\-0-|-------------------|-0-0-4-4-5-5-7\-0-|
~ ~|---------------------------------|------------------|-----------------------||-8----8-(8)\-------3-------------|---------0-0------|-----------------------||-7--0-7-(7)\-0-2h4---2h4p2p0-----|------------------|-2---------------------||-6--0-6-(6)\-----------------2p0-|------------------|-2----2----(2)---------||-7----7-(7)\---------------------|---0-4-4-5-5-7\-0-|-0--x------------------||---------------------------------|-0----------------|----x-3b5==(3)r(3)-3---|
~ ~~~~~~~ ~|--------------------|---------------------|--------------------------||-------0-0-0-0-0----|-8----8-(8)\---------|----3-----3-----3-----3---||--------------------|-7--0-7-(7)\---------|------2-----2-----2---2---||--------------------|-6--0-6-(6)\---------|--------------------------||--------------------|-7----7-(7)\----0--1-|-2------2-----2-----2---0-||-0-0-3s4-4-5-5-7\-0-|-------------4-------|--------------------------|
|--------------0-(0)---------||-------2-----/5-(5)---5-----||-----0---0----------------0-||----------------------------||-(0)-------0--------0---0---||----------------------------|
Faster Q=150 ~~~~~|--------------------------------------------------|------------|||---15b17==(15)-(15)-15-15-15r-15-12----12---------|------------|||------------------------------------14----12b12.5-|------------|||--------------------------------------------------|-14\--------|||--------------------------------------------------|------------|||-0------------------------------------------------|------------||
Guitar Solo Gtr II|-16-16\---------------16-------||-15-15\------------------------||-16-16\--x-x--x--x-16----16-14-||-------------------------------||-------------------------------||-------------------------------|
|
| Gtr I|-------------------------------||-------------------------------||--9--9-------(9)-------9--9--7-||--9--9-------(9)-------9--9--7-||--7--7-------(7)-------7--7--7-||-------------------------------|
~~~~~~~~~|-12-12\-----------12----14-|-15-16---(16)----16----14--||---------------------------|---------------------------||-13-13\-------/13----13-14-|-15-16---(16)-16----16-14--||---------------------------|---------------------------||---------------------------|---------------------------||---------------------------|---------------------------|
|
|---------------------------|---------------------------||---------------------------|---------------------------||--9--9--(9)----------------|--9--9----(9)-----9--9--7--||--9--9--(9)----------------|--9--9----(9)-----9--9--7--||--7--7--(7)----------------|--7--7----(7)-----7--7--7--||---------------------------|---------------------------|
|-12-12\----------17-------||--------------------------||-13-13\-------18----18-19-||--------------------------||--------------------------||--------------------------|
|
|--------------------------||--------------------------||--9--9----(9)-----9--9----||--9--9----(9)-----9--9--0-||--7--7----(7)-----7--7--0-||--------------------------|
~~~~~~~~~|-21-21---(21)----21----19-|-17-17\----------12----14-||--------------------------|--------------------------||-21-21---(21)-21----21-19-|-18-18\-------13----13-14-||--------------------------|--------------------------||--------------------------|--------------------------||--------------------------|--------------------------|
|
|--------------------------|--------------------------||--------------------------|--------------------------||--2--2----(2)-----2--2--0-|--2--2----(2)-------------||--2--2----(2)-----2--2--0-|--2--2----(2)-------------||--0--0----(0)-----0--0--0-|--0--0----(0)-------------||--------------------------|------------------------0-|
~~~~~~~~|-16-16-16--(16)----16----14-|-12-12\-----------------||----------------------------|------------------------||-15-16-16--(16)-16----16-14-|-13-13\------6s20\------||----------------------------|------------------------||----------------------------|------------------------||----------------------------|------------------------|
|
|----------------------------|------------------------||----------------------------|------------------------||--9--9------(9)-----9--9--7-|--9--9--(9)--------9\---||--9--9------(9)-----9--9--7-|--9--9--(9)--------9\---||--7--7------(7)-----7--7--7-|--7--7--(7)--------7\-0-||----------------------------|----------------------0-|
|----17----17----17-(17)----17-----17-||-16----16----16---------16----16-----||-------------------------------------||-------------------------------------||-------------------------------------||-------------------------------------|
|
|-------------------------------------||-------------------------------------||--4--------4---------4---------4\----||--4--------4---------4---------4\----||--2--------2---------2---------2\----||-------------------------------------|
|----15----15----15-(15)----15----15-||-14----14----14---------14----14----||------------------------------------||------------------------------------||------------------------------------||------------------------------------|
|
|------------------------------------||------------------------------------||--2--------2--2-----(2)-----2--2----||--2--------2--2-----(2)-----2--2----||--0--------0--0-----(0)-----0--0----||----------------------------------0-|
|---10-----10---10-(10)---10---10-|---5-----5---5-------------------|||-9------9----9---------9----9----|-4-----4---4---/12-12------------|||---------------------------------|-----------------------14-14-12--|||---------------------------------|---------------------------------|||---------------------------------|---------------------------------|||---------------------------------|---------------------------------||
|
|---------------------------------|---------------------------------|||---------------------------------|---------------------------------|||-9----9----9--------9-----9-9----|---------8---------(8)-----------|||-9----9----9--------9-----9-9----|---------7---------(7)-----0-----|||-7----7----7--------7-----7-7----|-9---9---9---------(9)-----0-----|||---------------------------------|-7---7---7---------(7)-----------||
~~|---------------------------------||---------------/12---12----------||-12---14\---------------14-14-12-||---------------------------------||---------------------------------||---------------------------------|
|
|---------------------------------||---------------------------------||--9-9------(9)-----9--9-----7----||--9-9------(9)-----9--9-----7----||--7-7------(7)-----7--7-----7----||---------------------------------|
~~|--------------------------------(12)------------|----------------------------||---------------------------------12-------------|--------------12---12-------||-14b16==(14)r---12b12.5----------------16-14-12-|-12---14--------------14-12-||------------------------14-(14)-----------------|----------------------------||------------------------------------------------|----------------------------||------------------------------------------------|----------------------------|
|
|------------------------------------------------|----------------------------||------------------------------------------------|----------------------------||----------9---9-------------(9)------9--9-----7-|--9-9-----(9)----9--9-----7-||----------9---9-------------(9)------9--9-----7-|--9-9-----(9)----9--9-----7-||----------7---7-------------(7)------7--7-----7-|--7-7-----(7)----7--7-----7-||------------------------------------------------|----------------------------|
|----------------12--------------------12----------------------12-||-------------------15p12-----------------15p12-------------------||-14b16==(14)r------------14b16==(14)r----------14b16==(14)r------||-----------------------------------------------------------------||-----------------------------------------------------------------||-----------------------------------------------------------------|
|
|-----------------------------------------------------------------||-----------------------------------------------------------------||----------9---9------------------(9)---------9----------9---7----||----------9---9------------------(9)---------9----------9---7----||----------7---7------------------(7)---------7----------7---7----||-----------------------------------------------------------------|
|--------------------12--------------------12-------------||-15p12-----------------15p12-----------------15p12-------||-------14b16==(14)r----------14b16==(14)r----------14p12-||---------------------------------------------------------||---------------------------------------------------------||---------------------------------------------------------|
|
|---------------------------------------------------------||---------------------------------------------------------||--9-----9----------------------------(9)---9--9-----0----||--7-----7----------------------------(7)---7--7-----0----||--0-----0----------------------------(0)---0--0-----0----||---------------------------------------------------------|
|-------------------------------------------------||-------------------------------------------------||-------------------------------------------------||-14p12-------------------------------------------||-------14p12s10----10h12-10-13p10----10-12S14----||----------------12----------------12-------------|
|
|-------------------------------------------------||--2-----2----------------------------------------||--2-----2-----------2p====0----------------------||--2-----2----------------------------------------||--0-----0----------------------------------------||-------------------------------------------------|
|----------------------------------------------------------||----------------------------------------------------------||------------12-14-12-14b15p12-14-14b15==(14)r-12----12----||---12-13-14--------------------------------------14----14-||----------------------------------------------------------||----------------------------------------------------------|
|
|----------------------------------------------------------||----------------------------------------------------------||-9--9-----9-----9----(9)-------9----------9----9-----7----||-9--9-----9-----9----(9)-------9----------9----9-----7----||-7--7-----7-----7----(7)-------7----------7----7-----7----||-0--0-----0-----0----(0)-------0----------0----0-----0----|
~~~~|----------------------12--------------------|-------------------------------------------||-------------------12----15--15b17r====(15)-|--------------15-----------------15-(15)---||-12-14b16==(14)r----------------------------|-14b15==(14)r----14-14b15==(14)r-----------||--------------------------------------------|-------------------------------------------||--------------------------------------------|-------------------------------------------||--------------------------------------------|-------------------------------------------|
|
|--------------------------------------------|-------------------------------------------||--------------------------------------------|-------------------------------------------||--9--------------9-------(9)--9----9-9------|----------4--------------------------(4)---||--9--------------9-------(9)--9----9-9---0--|----------4--------------------------(4)---||--7--------------7-------(7)--7----7-7---0--|----------2--------------------------(2)-0-||--0--------------0-------(0)--0----0-0---0--|-------------------------------------------|
~~~~~|----------------------------------------------||--------------15------------------------------||-13b15==(13)r----13-13-----13b16==(13)r-------||----------------------------------------------||----------------------------------------------||----------------------------------------------|
|
|----------------------------------------------||------------------2----2-2--------------2-2---||----------2-------2----2-2--------------2-2---||----------2-------2----2-2--------------2-2---||----------0-------0----0-0--------------0-0-0-||--------------------------------------------0-|
~~|-------------------------------------------------|--------------------------------|||----------------15-------------------------------|------------------17b20==(17)r--|||-13b16==(13)r------14b16==(14)r-14-(14)-12----14-|-12---(12)\---------------------|||-------------------------------------------14----|--------------------------------|||-------------------------------------------------|--------------------------------|||-------------------------------------------------|--------------------------------||
|
|-------------------------------------------------|--------------------------------|||-------------------------------------------------|--4-4--------(4)-----------4/---|||----------------------------9----9---9---9--9--0-|---------------------------2/---|||----------9---9-------------9----9---9---9--9--0-|--4-4--------(4)-----------4/---|||----------7---7-------------7----7---7---7--7--0-|--2-2--------(2)-----------2/---|||----------0---0----------------------------------|--------------------------------||
|-----------------------------------------|------------------------------------------------||-17b20---17b20---17b20==(17)r-----17b20==|=(17)r-----17b21====(17)r---17b20r==(17)-17pb19-||-----------------------------------------|------------------------------------------------||-----------------------------------------|------------------------------------------------||-----------------------------------------|------------------------------------------------||-----------------------------------------|------------------------------------------------|
|
|-----------------------------------------|------------------------------------------------||--9----9--9-------9-------9---9-9--------|---9---9-9--9-----9---9---9--9----9---9---9-----||--7----7--7----x--7-------7---7-7--x-----|---7---7-7--7-----7---7---7--7----7---7---7-----||---------------x-------------------x-----|------------------------------------------------||---------------x-------------------x-----|------------------------------------------------||-----------------------------------------|------------------------------------------------|
~~|------------------------------------------------------||-17pb21-17pb19---17pb21---17pb19-17b21-------15b17-15-||------------------------------------------------------||------------------------------------------------------||------------------------------------------------------||------------------------------------------------------|
|
|------------------------------------------------------||--9------9-----9--9-----9--9------9----9-9-9--9-----9-||--7------7-----7--7-----7--7------7----7-7-7--7-----7-||------------------------------------------------------||------------------------------------------------------||------------------------------------------------------|
~~~~|----------------------15p12-----15p12-|----15p12------15p12----15p12------15p12-||-(15)-----x---x---x---------15--------|-15-------15---------15-------15---------||--------------------------------------|-----------------------------------------||--------------------------------------|-----------------------------------------||--------------------------------------|-----------------------------------------||--------------------------------------|-----------------------------------------|
|
|--------------------------------------|-----------------------------------------||---9--9-9-9-9-9-9-9-9--9--9--9\-------|------------------------------------0----||---7--7-7-7-7-7-7-7-7--7--7--7\-------|--6--6-----6b7--6-----6--6--6--6b7--0----||--------------------------------------|--5--5-----5----5-----5--5--5--5----0----||--------------------------------------|-----------------------------------------||--------------------------------------|-----------------------------------------|
|----15p12------16p0----15p12------15p12-||-15-------15--------15-------15---------||----------------------------------------||----------------------------------------||----------------------------------------||----------------------------------------|
|
|----------------------------------------||----------------------------------------||--6--6-----6b7--0----6--6-----6b7--0----||--5--5-----5----0----5--5-----5----0----||------------------------------0----0----||----------------------------------------|
|----15p12----15p12------15p12----15p12-||-15-------15-------15---------15-------||---------------------------------------||---------------------------------------||---------------------------------------||---------------------------------------|
|
|---------------------------------------||--9--9--9--9--x--x--9-9--9--9--9--x--x-||--7--7--7--7--x--x--7-7--7--7--7--x--x-||--------------x--x----------------x--x-||--------------x--x----------------x--x-||---------------------------------------|
|----15p12------15p12------12---15-15b18====|=(15)r-15-15b19-15b19==(15)----15r==||-15-------15---------15--------------------|------------------------------------||-------------------------------------------|------------------------------------||-------------------------------------------|------------------------------------||-------------------------------------------|------------------------------------||-------------------------------------------|------------------------------------|
|
|-------------------------------------------|------------------------------------||--9--9--9--9-9--9--9--9-9--9-9--9--0-----0-|------------------------------------||--7--7--7--7-7--7--7--7-7--7-7--7--0-----0-|---4-------4-------------4---4------||-----------------------------------0-----0-|---4-------4-------------4---4------||-------------------------------------------|---2-------2-------------2---2--0---||-------------------------------------------|------------------------------------|
~~~~~~~|-(15)-12----15---12------15-|---12-(12)---(12)\------||---------14---------14------|------------------------||----------------------------|------------------------||----------------------------|------------------------||----------------------------|------------------------||----------------------------|------------------------|
|
|----------------------------|------------------------||----------------------------|------------------------||---2------2----2-------2----|-9--9---9--9---9----9-9-||---2------2----2-------2----|-9--9---9--9---9----9-9-||---0------0----0-------0--5S|=7--7---7--7---7----7-7-||----------------------------|------------------------|
H.=H|----------------12--------------------------------------|||-------------------15p12--------------------------------|||-14b16==(14)r------------14p12--------------------------|||-------------------------------14p12--------------------|||-------------------------------------14p12s10----12-----|||----------------------------------------------12----12--||
|
|--------------------------------------------------------|||--------------------------------------------------------|||----------9---9-----9-----9-----9-----9-----9-----------|||----------9---9-----9-----9-----9-----9-----9-----------|||----------7---7-----7-----7-----7-----7-----7-----------|||--------------------------------0-----0-----0-----------||
Pre-Verse A Tempo Q=92|----------------------|----------------------------|--------------------||----------------------|----------------------------|--------------------||----------------------|----------------------------|--------------------||----------------------|----------------------------|--------------------||-10\------------------|----------------------------|--------------------||----------------------|----------------------------|--------------------|
|
| ~ ~ ~~~~|----------------------|----------------------------|--------------------||----------------------|-8----8-(8)----12----12-12\-|-------0-0-0-0-0----||----------------------|-7--x-7-(7)----12----12-12\-|--------------------||----------------------|-6--x-6-(6)-12-12-12-12-12\-|--------------------||----------------------|-7--x-7-(7)-----------------|--------------------||--0--0-3s4-4-5-5-7\-0-|----------------------------|-0-0-3s4-4-5-5-7\-0-|
Gtr I ~ ~|-----------------------------------|-----------------|----------------------||-8----8\-------3-------------------|---------0-------|----------------------||-7--0-7\-0h2h4---2h4p2p0-----------|-----------------|-2--------------------||-6--0-6\-----------------2p0h2p0h2-|-----------------|-2----2-(2)-----------||-7----7\---------------------------|-0--/4-4-5-5-7s0-|-0--x----x------------||-----------------------------------|-----------------|----x-3-(3)b5r(3)-3---|
~~~~~~~|--------------------|---------------|-------------------------||---0---0-0-0-0------|-8----8-(8)\---|----------3--------------||--------------------|-7-x--7-(7)\---|------------2----------0-||--------------------|-6-x--6-(6)\---|-------------------------||--------------------|-7-x--7-(7)s===|=2--(2)-2-----2--(2)-0---||-0-0-3s4-4-5-5-7\-0-|---------------|-------------------------|
~~~~~~|----------------------|----------------------------------------------||----------5---5-5-5---|---15b17==(15)-15-15r(15)-15-12----12---------||--------------------0-|--------------------------------14----12b12.5-||----------------------|----------------------------------------------||-0--(0)-0---0---------|----------------------------------------------||----------------------|-0--------------------------------------------|
~~~~~~~|-------------------------------------------|||-------------------------------------------|||-------------12----------------------------|||-14-12-13-14----14-12-(12)----------12-----|||---------------------------12-13-14----14\-|||-------------------------------------------||
Verse 3 Gtr II|----------|-----------------|-------------|------------------||----------|-----------------|-/10\--------|------/12-(12)\---||----------|-----------------|-------------|------------------||----------|-----------------|-------------|------------------||----------|------------x\---|-------------|------------------||-0--------|-(0)----(0)------|-------------|------------------|
Gtr I|-----------|---------|---------|------------||-----------|---------|---------|------------||-----------|---------|---------|------9\----||-----------|---------|---------|------------||--------x\-|---------|---------|------------||-----------|---------|---------|------------|
Gtr II ~~~~~|---------|---------|--------------------|----------|||---------|---------|--/10-(10)b12=======|=(10)r----|||---------|---------|--------------------|----------|||---------|---------|--------------------|----------|||---------|---------|--------------------|----------|||---------|---------|--------------------|----------||
Verse 4 Gtr I ~~~~~~~~~~~|---------------------|-------------------------|-------------------------||-------/15b17===(15)-|-(15)r-----/15-(15)b17===|=(15)r-------------------||-x-------------------|-------------------------|-----------/14-(14)b15===||-x-------------------|-------------------------|-------------------------||---------------------|-------------------------|-------------------------||---------------------|-------------------------|-------------------------|
~~~~~ ~~~~~~~~~~~~~~~~|-------------------------|---------------------|-----------------||-------------------------|---------------------|-----------------||-(14)b16===(14)r-----/16-|-(16)b18===(16)------|-(16)r-------/14-||-------------------------|---------------------|-----------------||-------------------------|---------------------|-----------------||-------------------------|---------------------|-----------------|
|-------------------|--------------|-----------||-------------------|--------------|-----------||-14b16=====(14)r===|=(14)\--------|-----------||-------------------|--------------|-----------||-------------------|--------------|-x\--------||-------------------|--------------|-----------|
|------------|-------------------|-----------|||-9p7--------|-------------------|-----------|||------------|--7tr9-(7tr9)------|-(7tr9)----|||------------|-------------------|-----------|||------------|-------------------|-----------|||------------|-------------------|-----------||
Verse 5|---------|------------------------------|---------------||---------|------------------------------|---------------||---------|-14b15r(14)p12-(12)b12.5------|--------15p14p=||---------|------------------------------|---------------||---------|------------------------------|---------------||---------|------------------------------|---------------|
|-------------------------------------------------------------||-------------------------------------------------------------||-12b12.5--15p14p12b12.5--15p14p12b12.5--15p14p12b12.5--15p14p||-------------------------------------------------------------||-------------------------------------------------------------||-------------------------------------------------------------|
~~~~|-------------------------|-----||-------------------------|-----||-12b14==(12)-(12)r\------|-----||-------------------------|-----||-------------------------|-----||-------------------------|-----|
|-----------------------------------------------------||-----------------------------------------------------||--15p14p12b12.5--15p14-12b12.5--15p14p12b12.5--15p14p||-----------------------------------------------------||-----------------------------------------------------||-----------------------------------------------------|
~~~|----------------------------------------------------|------------------||----------------------------------------------------|-----------12-12--||-12b12.5--15p14p12b12.5--15p14-12----14----12-------|------------------||----------------------------------14----14----14-12-|------------------||----------------------------------------------------|-14\--------------||----------------------------------------------------|------------------|
PM|----------------------|---------------------------------||-15-15b17------12tr15-|-(12tr15)b14=======(12tr15)b15===||----------------------|---------------------------------||----------------------|---------------------------------||----------------------|---------------------------------||----------------------|---------------------------------|
|-------------------------|||-(12tr15)r===(12tr15)----|||-------------------------|||-------------------------|||-------------------------|||-------------------------||
~~~~|-------------|------------------------||-(12)--------|------------------------||-------------|------------9----9----9-||-------------|-----(9)-11---11---11---||-------------|------------------------||-------------|------------------------|
~~~~~~|---------------------------------------------||---------------------------------------------||-11b13-11b13====(11)r-11pb12r(11)p9h11-11----||------------------------------------------11-||---------------------------------------------||---------------------------------------------|
~ ~~~~~~~~|---------------------12----|------------------------------------------------------||------------------12----15-|-12------------------------------------15-------------||-9-(9)\-----14b16----------|----14b16r(14)p12-14----12----12-14b16----14-(14)b16==||---------------------------|---------------------14----14-------------------------||---------------------------|------------------------------------------------------||---------------------------|------------------------------------------------------|
~~~~~~ |-------------------------
Tap to rate this tab
 
# A B C D E F G H I J K L M N O P Q R S T U V W X Y Z