Leftover Crack – Baby Jesus Sliced Up In The Manger tab

Band - Leftover Crack
Album: Baby Jesus, Sliced Up In The Manger
Tabbed By: Tyler Freear (SumFX)

Tuning: Standard (E A D G B E)

Tracks List:
1.Intro
2.Heroin Or Suicide
3.Nobody Is Free
4.Drug Song
5.So You Wanna Be A Cop?

Well, Here You Have The Entire "Baby Jesus, Sliced Up In The Manger"
E.P

I Have Noted 2 Guitars When It Is Needed.

Key:
.=Palm Mute
/\=Slides
x=Dead Note
T=Finger Tap

                         !Let's Start!
----------------------------------------------------------------------------
----------------------------------------------------------------------------
                           Intro

Hilarious! 
It's Just A Horn Section And Quotes From Mr.T!

----------------------------------------------------------------------------
----------------------------------------------------------------------------
                        Heroin Or Suicide
There Are Quite A Few Bits To This Song So Be Careful.

Chorus|-----x3---------|----------||----------------|----------||-66-------------|-66-------||-66-66-7777777--|-66-66-7--||-44-66-7777777--|-44-66-7--||----44-5555555--|----44-5--|
Verse|--------------------------||--------------------------||--------------------------||--------------------------||-44444444----------777666-||---------4444455555-------| ........................
Chorus 2|-----x7---------|----------||----------------|----------||-66-------------|-66-------||-66-66-7777777--|-66-66-7--||-44-66-7777777--|-44-66-7--||----44-5555555--|----44-5--|
Chorus Octaves0.23 0.47 2.35|---------------------------------------------||---------------------------------------------||-6--8-99999--6--8-99999--6--8-99999--6-8-9---||-x--x-xxxxx--x--x-xxxxx--x--x-xxxxx--x-x-x---||-4--6-77777--4--6-77777--4--6-77777--4-6-7---||---------------------------------------------|
Chorus 3|-------------------------|-----------------------||-------------------------|-----------------------||-------99999-66666-------|-------99-8---66-------||-77777-99999-66666-66666-|-77777-99-8---66-66666-||-77777-77777-44444-66666-|-77777-77-6---44-66666-||-55555-------------44444-|-55555-----------44444-|
Bridge(Clean Guitar For All Of The Bridge) A A C#m G#|--------------------------------------||-55555555-99999999-55555555-44444444--||-66666666-99999999-66666666-55555555--| X2|-77777777-99999999-66666666-66666666--||-77777777-77777777-44444444-66666666--||--------------------------------------| ........ ........ ........ ........
|-----------------------------------------------------------------||-----9-9-----9-9-----9-9-----9-9-------9--9------------9--9------||-6-6-----6-6-----6-6-----6-6---------6------6--------6------6----| x2|---------------------------------6-6----------6--6-6----------6--||-----------------------------------------------------------------||-----------------------------------------------------------------| . . . . . . . . . . . . . . . . . . . . . . . . . . . . . . . .
A A C#m G#|--------------------------------------||-55555555-99999999-55555555-44444444--||-66666666-99999999-66666666-55555555--| X2|-77777777-99999999-66666666-66666666--||-77777777-77777777-44444444-66666666--||--------------------------------------| ........ ........ ........ ........
|-----------------------------------||-----------------------------------||-----------------------------------||--------99999999966666666----------| x2|-77777777777777774444444466666666--||-55555555----------------44444444--| ................................
Bridge 2Lead Guitar|-----------------------------------||-----------------------------------||-----------------------------------||--------99999999966666666----------||-77777777777777774444444466666666--||-55555555----------------44444444--|
Rhythm Guitar|-----------------------------------||-----------------------------------||-----------------------------------||-999999999999999999999999999999----||-777777777777777777777777777777----||-----------------------------------|
SoloLead Guitar|-------------------------------------------------||-------------------------------------------------||-------------------------------------------------||-66-77-66-77-66-77-66-77-66-77-66-77-66-77-66-77-||-------------------------------------------------||-------------------------------------------------|
Rhythm Guitar (Clean)|------------------------------------------------------------------||-------9------9-------9-------9-------9--------9-------9-------9--||----9------9-------9-------9-------9--------9-------9-------9-----||-9------9-------9-------9-------9--------9-------9-------9--------||------------------------------------------------------------------||------------------------------------------------------------------|
Lead Guitar|---------------------------------------------------------||---------------------------------------------------------||---------------------------------------------------------||-66-77-99-77--66-77-99-77--66-77-99-77--66-77-99-77--6---||---------------------------------------------------------||---------------------------------------------------------|
Chorus 4|--------------||--------------||-6------------||-6-6-7777-----||-4-6-7777-----||---4-5555-----|
Structure Chorus 1 x1 Verse x4 Chorus 2 x1 Verse x4 Chorus 2 x1 Chorus 3 x4 Bridge x Bridge 2 x2 Solo x1 Chorus 4 x16 ------------------------------------------------------------------------ ------------------------------------------------------------------------ Nobody Is Free
IntroGuitar 1|----------------|---------------|---------------|----------------||----------------|---------------|---------------|----------------||----------------|---------------|---------------|----------------||----------------|----444-555-444|----666-777-666|----444-555-444-||----444-555-444-|-55------------|-77------------|-55-------------||-55-------------|---------------|---------------|----------------|
Guitar 2|----------------|---------------|---------------|----------------||----------------|---------------|---------------|----------------||----------------|-7-------------|-9-------------|-7--------------||-7--------------|-7-------------|-9-------------|-7--------------||-7--------------|-5-------------|-7-------------|-5--------------||-5--------------|---------------|---------------|----------------|
Verse Guitar 1|----------------|---------------|---------------|----------------||----------------|---------------|---------------|----------------||----------------|---------------|---------------|----------------||----------------|----444-555-444|----666-777-666|----444-555-444-||----444-555-444-|-55------------|-77------------|-55-------------||-55-------------|---------------|---------------|----------------|
|----------------|---------------|---------------|----------------||----------------|---------------|---------------|----------------||----------------|---------------|---------------|----------------||----------------|----444-555-444|----666-777-666|----444-555-444-||----444-555-444-|-55------------|-77------------|-55-------------||-55-------------|---------------|---------------|----------------|
|---------------|---------------|---------------|---------------||---------------|---------------|---------------|---------------||---------------|---------------|---------------|---------------||---------------|----4-5-77-5-4-|----6-7-99-7-6-|----4-5-77-5-4-||----4-5-77-5-4-|-55------------|-77------------|-55------------||-55------------|---------------|---------------|---------------|
|----------------|---------------|---------------|----------------||----------------|---------------|---------------|----------------||----------------|---------------|---------------|----------------||----------------|----444-555-444|----666-777-666|----444-555-444-||----444-555-444-|-55------------|-77------------|-55-------------||-55-------------|---------------|---------------|----------------|
Chorus Lead Guitar|---------------17---------------17------------||-1515-19--1515----1515-19--1515----1515-19-17-||----------------------------------------------||----------------------------------------------||----------------------------------------------||----------------------------------------------|
|---------------17---------------17------------||-1515-19--1515----1515-19--1515----1515-20-19-||----------------------------------------------||----------------------------------------------||----------------------------------------------||----------------------------------------------|
Chorus Rhythm Guitar|------------------------------||------------------------------||------------------------------||-77777777-99999999-55555555---||-77777777-99999999-55555555---||-55555555-77777777-33333333---| ........ ........ ........
Structure Intro Verse Chorus Verse Chorus Intro Verse Chorus Intro -------------------------------------------------------------------------- -------------------------------------------------------------------------- Drug Song
Verse(Clean, Ska Rhythm) Am Gm Em Gm|-12----10----12----10------||-13----11----12----11------||-14----12----12----12------||-14----12----14----12------||-12----10----14----10------||-------------12------------|
Chorus Lead|--------------------------------------------------------||--------------------------------------------------------||-14141414-12121212-14141414-12121212-14141414-12121212--||-x-x-x-x--x-x-x-x--x-x-x-x--x-x-x-x--x-x-x-x--x-x-x-x---||-12121212-10101010-12121212-10101010-12121212-10101010--||--------------------------------------------------------|
|-------------------||-------------------||-17-16-14-12-------||-x--x--x--x--------||-15-14-12-10-------||-------------------|
|--------------------------------------------------------||--------------------------------------------------------||-14141414-12121212-14141414-12121212-14141414-12121212--||-x-x-x-x--x-x-x-x--x-x-x-x--x-x-x-x--x-x-x-x--x-x-x-x---||-12121212-10101010-12121212-10101010-12121212-10101010--||--------------------------------------------------------|
|----------------------||----------------------||-1111111112121212-14--||-x-x-x-x-x-x-x-x--x---||-9-9-9-9-10101010-12--||----------------------|
Chorus Rhythm|------------------------------------------||------------------------------------------||-55555555-77777777-99999999-111111111111--||-55555555-77777777 xxxxxxxx-x-x-x-x-x-x---||-33333333-55555555-77777777-9-9-9-9-9-9---||------------------------------------------|
Solo T T T T T T T T|-15p10h11-15p10h11-15p10h11-15p10h11-15p10h11-15p10h11-15p10h11-15p10h11-||-------------------------------------------------------------------------||-------------------------------------------------------------------------||-------------------------------------------------------------------------||-------------------------------------------------------------------------||---------------x2--------------------------------------------------------|
T T T T T T T T|-17p12h15-17p12h15-17p12h15-17p12h15-17p12h15-17p12h15-17p12h15-17p12h15-||-------------------------------------------------------------------------| |-------------------------------------------------------------------------||-------------------------------------------------------------------------||-------------------------------------------------------------------------||----------------x2-------------------------------------------------------|
Outro(Clean) Am|-12-----------12--------------||-13--------13----13-----------||-14-----14----------14--------||-14--------------------14-----||-12-----------------------12\-||------------------------------|
Structure Verse Chorus Verse Chorus Solo (Chorus Rhythm) Verse Outro -------------------------------------------------------------------------- -------------------------------------------------------------------------- So You Wanna Be A Cop? I'm Not 100% On How Acurate This Tab Is, It Was Pretty Hard To Do!
Intro|------------------------||------------------------||-2------4---------------||-2------4----4-----2----||-0------2----4-----2----||-------------2-----0----|
Intro Octaves 0.44 0.54|------------------|---------||------------------|---------||-9--14--13--9-----|--/14----||-x--x---x---x-----|---x-----||-7--12--11--7-----|--/12----||------------------|---------|
Intro/Chorus|------------------||------------------||-222-444----------||-222-444-44-222---||-000-222-44-222---||---------22-000---|
Intro Chorus Lead|------------------------------||------------------------------||-666-141414-131313--9-11-9----||-xxx-x-x-x--x-x-x---x-x--x----||-444-121212-111111--7-9--7----||------------------------------|
Verse|---------------------------------------------9-------------------||----10-------10-------10------10----10----10---------10-------10-||-9--------9--------9---------9----9-----9---------9---------9----||-----------------------------------------------------------------||-----------------------------------------------------------------||-----------------------------------------------------------------|
Chorus|------------------||------------------||-222-444----------||-222-444-44-222---||-000-222-44-222---||---------22-000---|
Post Chorus|--------------------||--------------------||-222-444--666-777---||-222-444--xxx-xxx---||-000-222--444-555---||--------------------|
Post Chorus 2|-------------------------------------------||-------------------------------------------||-77777777-66666666--777777777-66666666-9---||-xxxxxxxx-xxxxxxxx--xxxxxxxxx-xxxxxxxx-x---||-55555555-44444444--555555555-44444444-7---||-------------------------------------------|
Whoas|----------------------------------||----------------------------------||---------666-777--999-777-666-----||-777-999----------------------999-||----------------------------------||----------------------------------|
|-------------------------------------------------||------------------7----------------------------7-||---------666-777----9-7-6--7-6-----------6-7-9---||-777-999-----------------------9-7-6-7-9---------||-------------------------------------------------||-------------------------------------------------|
|------------------------------------------||---------------------101010-----777-------||---------6-7-6--------------999-----777---||-777-999-------9-7------------------------||------------------------------------------||------------------------------------------|
|-----------------------------------------||--------------------10-----7-------------||----------666-777-------9----7-999999999-||-777-999---------------------------------||-----------------------------------------||-----------------------------------------|
Whoas 2|----------------------------------||----------------------------------||---------666-777--999-777-666-----||-777-999----------------------999-||----------------------------------||----------------------------------|
|-------------------------------------------------||------------------7----------------------------7-||---------666-777----9-7-6--7-6-----------6-7-9---||-777-999-----------------------9-7-6-7-9---------||-------------------------------------------------||-------------------------------------------------|
|------------------------------------------||---------------------101010-----777-------||---------6-7-6--------------999-----777---||-777-999-------9-7------------------------||------------------------------------------||------------------------------------------|
|-------------------------------------------------||--------------------10-----7----1010101010101010-||----------666-777-------9----7-------------------||-777-999-----------------------------------------||-------------------------------------------------||-------------------------------------------------|
Outro|------------------------||------------------------||-2------4---------------||-2------4----4-----2----||-0------2----4-----2----||-------------2-----0----|
Outro Octaves 3.38 3.42|------------------|--------------------||------------------|--------------------||--------7-6-4-6-4-|--141414141313-9----||--------x-x-x-x-x-|--x-x-x-x-x-x--x----||--------5-4-2-4-2-|--121212121111-7----||------------------|--------------------|
3.45|------------------------------||------------------------------||-666-141414-131313--9-11-9----||-xxx-x-x-x--x-x-x---x-x--x----||-444-121212-111111--7-9--7----||------------------------------|
End|--------------------||--------------------||-6------------------||-x------------------||-4------------------||--------------------|
Structure Intro Intro Chorus Verse Chorus Post Chorus Post Chorus 2 Whoas Verse Chorus Post Chorus Post Chorus 2 Whoas 2 Outro --------------------------------------------------------------------------- --------------------------------------------------------------------------- And That Is It! Fantastic E.P Showing LOC At Their Prime! I Have Noticed There Isn't Alot Of "Good Quality" LOC Tabs......... And I'm Here To Change That! Please Rate & Comment As This Took Quite A While To Do :)
Please rate this tab:
x1.0