Les Inconnus - Cest Toi Que Je Taime tab

LES NEGRA BOUCH BEAT (Les inconnus)
C'est toi que je t'aime



INTRO

|Accordéon (arrangé pour guitarre)
|
|-3-----3-1---------------3-3-3-3-3:-|-3-----3-1--------------3-3--3--3--3:-||---4---------3----------------------|---4---------3------------------------||-----3------------------------------|-----3--------------------------------||------------------------------------|--------------------------------------||------------------------------------|--------------------------------------||------------------------------------|--------------------------------------|
| | |Guitare |
|------------------------------------|--------------------------------------||------------------------------------|--------------------------------------||------------------------------------|-8-8-8---------10-10-10---------------||------------------------------------|-8-8-8--8-8-8--10-10-10--10-10-10-10:-||------------------------------------|-6-6-6--8-8-8---8--8--8--10-10-10-10:-||------------------------------------|--------6-6-6-------------8--8--8--8:-|
COUPLET |Guitare 1 |
|----------------------------| |-------------------------------||----------------------------| |-------------------------------||-5-5-5---------8-8-8--------| X 3 |-------------------------------||-5-5-5--6-6-6--8-8-8--5-5-5-| |-5-5-5:------------------------||-3-3-3--6-6-6--6-6-6--5-5-5-| |-5-5-5:------------------------||--------4-4-4---------3-3-3-| |-3-3-3:------------------------|
| | |Guitare 2 |
|--3-3----4-4----6-6----3-3--| |-------------------------------||--5-5----4-4----8-8----3-3--| |-----8-------8-----8-8-------8-||--5-5----5-5----8-8----4-4--| X 3 |-------------------------------||--5-5----6-6----8-8----5-5--| |-5-5-----5-5-----5-------5-5---||--3-3----6-6----6-6----5-5--| |-------------------------------||---------4-4-----------3-3--| |-------------------------------|
PRE REFRAIN |Guitare 1 |
|-------3-|-------4-|--------6-|---------8--||-----4---|-----4---|------6---|-------8----||---5-----|---5-----|----7-----|-----9------||-5-------|-6-------|--8-------|--10--------||---------|---------|----------|------------||---------|---------|----------|------------|
| | |Guitare 2 |
|---------|---------|----------|------------||---------|---------|----------|------------||--8-8-8--|---------|-10-10-10-|------------||--8-8-8--|--8-8-8--|-10-10-10-|--10-10-10--||--6-6-6--|--8-8-8--|--8--8--8-|--10-10-10--||---------|--6-6-6--|----------|---8--8--8--|
REFRAIN |Accordéon (arrangé pour guitarre) |
|-3-----3-1--------------3-3--3--3--3:-||---4---------3------------------------||-----3--------------------------------||--------------------------------------||--------------------------------------||--------------------------------------|
| | |Guitare 1 |
|--------------------------------------||--------------------------------------||-8-8-8---------10-10-10---------------||-8-8-8--8-8-8--10-10-10--10-10-10-10:-||-6-6-6--8-8-8---8--8--8--10-10-10-10:-||--------6-6-6-------------8--8--8--8:-|
| | |Guitare 2 |
|----------------6--5------------------||----------------------8---------------||--------------------------------------||--------------------------------------||--------------------------------------||--------------------------------------|
BREAK |Guitare 1 |
|-------------------||-------------------||-------------------||-5:----------------||-5:----------------||-3:----------------|
| | |Guitare 2 |
|-------3:--3-3-3-3-||-----3-------------||-------------------||-------------------||---5---------------||-3-----------------|
PAROLES Moi je squatte a Juvissy Et toi tu crèches a Neuilly Notre rencontre c'était fatal Ca s'est passé dans les halles Depuis je veut te revoir Que je suis au désespoir J'ai même plaqué toutes mes meufs Toi tu m'fais un effet boeuf Y'a pas plus gros que Monique Qu'est caissière a Prisunic Plus moche que Maïté Qui travaille aux PTT Je ne sais pas comment te dire Ce que je peux pas écrire Faudrait qu'j'invente des mots Qu'existent pas dans le dico C'est toi que je t'aime Vachement beaucoup Je t'inventerai un domaine Où l'amour sera roi Je bosserais toute la semaine Même le dimanche chez Ikea Je ferai de la variété Pour passer chez Sabatier Et que même si il le faut J'irai chanter chez Foucault Je suis capable pour faire du fric D'être caissier chez Prisunic Et de passer tout l'été A m'faite chier aux PTT Je ne sais pas comment te dire Ce que je peux pas écrire Faudrait qu'j'invente des mots Qu'existent pas dans le dico C'est toi que je t'aime Vachement beaucoup Pour toi je repasserai mon bac J'serai poli avec ta mère Je voterai pour Jacques Chirac J'arrèterai de boire de la bière Je mettrai un costard cravate J'irai a Rolland Garrros J'te jure j'aurai plus de morbacks J'écouterai Demis Roussos Je donnerai pour la Croix Rouge J'ferai plus 3615 Ulla J'achèterai le Figaro J'pisserai plus dans l'lavabo Je ne sais pas comment te dire Ce que je peux pas écrire Faudrait qu'j'invente des mots Qu'existent pas dans le dico C'est toi que je t'aime Vachement beaucoup
Tap to rate this tab
 
# A B C D E F G H I J K L M N O P Q R S T U V W X Y Z