Liars Academy – Brick Wall Will Always Win tab

Hey. This song is great. I was surprised that there was no tab for this song so i 
to tab it out myself. Hope u like it :)

~ = Let Ring
. = Palm Mute

Verse 1

|---------------------------0--0-0-0-0--0-0---0---0--0--0--0---0--0-||---------------------------0--0-0-0-0--0-0---0---0--0--0--0---0--0-||-------------------------------------------------------------------||-7~-7-7~-7-7Β—-7~-7-7~-7-7Β—-9~-9-9-9-9~-9-9Β—-10~-10-10-10-10~-10-10-||-7~-7-7~-7-7Β—-7~-7-7~-7-7Β—-9~-9-9-9-9~-9-9Β—-10~-10-10-10-10~-10-10-||-7~-7-7~-7-7Β—-7~-7-7~-7-7Β—-9~-9-9-9-9~-9-9Β—-10~-10-10-10-10~-10-10-|
|---------------------------0--0-0-0-0--0-0---0---0--0--0--0--0-0-0-||---------------------------0--0-0-0-0--0-0---0---0--0--0--0--0-0-0-||-------------------------------------------------------------9-9-9-|x2|-7~-7-7~-7-7Β—-7~-7-7~-7-7Β—-9~-9-9-9-9~-9-9Β—-10~-10-10-10-10~-9-9-9-||-7~-7-7~-7-7Β—-7~-7-7~-7-7Β—-9~-9-9-9-9~-9-9Β—-10~-10-10-10-10~-7-7-7-||-7~-7-7~-7-7Β—-7~-7-7~-7-7Β—-9~-9-9-9-9~-9-9Β—-10~-10-10-10-10~-------|
Chorus
|--------------------------------------------------------||--------------------------------------------------------||-----0~----0~------0~----0~------0~----0~------0~----0~-||---4~------------5~------------7~------------9~---------| x2|-2~------2~----3~------3~----5~------5~----7~------7~---||--------------------------------------------------------|
Verse 2
|---------------------------0--0-0-0-0--0-0---0---0--0--0--0---0--0-||---------------------------0--0-0-0-0--0-0---0---0--0--0--0---0--0-||-------------------------------------------------------------------||-7~-7-7~-7-7Β—-7~-7-7~-7-7Β—-9~-9-9-9-9~-9-9Β—-10~-10-10-10-10~-10-10-||-7~-7-7~-7-7Β—-7~-7-7~-7-7Β—-9~-9-9-9-9~-9-9Β—-10~-10-10-10-10~-10-10-||-7~-7-7~-7-7Β—-7~-7-7~-7-7Β—-9~-9-9-9-9~-9-9Β—-10~-10-10-10-10~-10-10-|
|---------------------------0--0-0-0-0--0-0---0---0--0--0--0--0-0-0-||---------------------------0--0-0-0-0--0-0---0---0--0--0--0--0-0-0-||-------------------------------------------------------------9-9-9-|x2|-7~-7-7~-7-7Β—-7~-7-7~-7-7Β—-9~-9-9-9-9~-9-9Β—-10~-10-10-10-10~-9-9-9-||-7~-7-7~-7-7Β—-7~-7-7~-7-7Β—-9~-9-9-9-9~-9-9Β—-10~-10-10-10-10~-7-7-7-||-7~-7-7~-7-7Β—-7~-7-7~-7-7Β—-9~-9-9-9-9~-9-9Β—-10~-10-10-10-10~-------|
Chorus
|--------------------------------------------------------||--------------------------------------------------------||-----0~----0~------0~----0~------0~----0~------0~----0~-||---4~------------5~------------7~------------9~---------| x2|-2~------2~----3~------3~----5~------5~----7~------7~---||--------------------------------------------------------|
(Not quite sure what you would call this part, but itΒ’s after the 2nd chorus)
|----------------------------------------------------------------||----------------------------------------------------------------||----------------------------------------------------------------||-5-5-5-5-5-5-5-------------------5-5-5-5-5-5-5------------------||-3-3-3-3-3-3-3-0-5-5-5-5-5-5-5-0-3-3-3-3-3-3-3-0-3-3-3-3-3-3-3--||---------------0-5-5-5-5-5-5-5-0---------------0-3-3-3-3-3-3-3--| . . . . . . . . . . . . . . . . . . . . . . . . . . . . . . .
|----------------------------------------------------------------||----------------------------------------------------------------||----------------------------------------------------------------||-5-5-5-5-5-5-5-------------------5-5-5-5-5-5-5------------------||-3-3-3-3-3-3-3-0-5-5-5-5-5-5-5-0-3-3-3-3-3-3-3-0-3-3-3-3-3-3-3--||---------------0-5-5-5-5-5-5-5-0---------------0-3-3-3-3-3-3-3--|
|---------------------||---------------------||-----0~-----0---0----| x3|---9~-----7~------7--||-7~-----5~----5------||---------------------|
|------------------------------||------------------------------||-5~--5-5-5-5-5-5-5-5-5-5-5-5--||-5~--5-5-5-5-5-5-5-5-5-5-5-5--||-3~--3-3-3-3-3-3-3-3-3-3-3-3--||------------------------------| . . .
|---------------------------0--0-0-0-0--0-0---0---0--0--0--0---0--0-||---------------------------0--0-0-0-0--0-0---0---0--0--0--0---0--0-||-------------------------------------------------------------------||-7~-7-7~-7-7Β—-7~-7-7~-7-7Β—-9~-9-9-9-9~-9-9Β—-10~-10-10-10-10~-10-10-||-7~-7-7~-7-7Β—-7~-7-7~-7-7Β—-9~-9-9-9-9~-9-9Β—-10~-10-10-10-10~-10-10-||-7~-7-7~-7-7Β—-7~-7-7~-7-7Β—-9~-9-9-9-9~-9-9Β—-10~-10-10-10-10~-10-10-|
|---------------------------0--0-0-0-0--0-0---0---0--0--0--0--0-0-0-||---------------------------0--0-0-0-0--0-0---0---0--0--0--0--0-0-0-||-------------------------------------------------------------9-9-9-|x2|-7~-7-7~-7-7Β—-7~-7-7~-7-7Β—-9~-9-9-9-9~-9-9Β—-10~-10-10-10-10~-9-9-9-||-7~-7-7~-7-7Β—-7~-7-7~-7-7Β—-9~-9-9-9-9~-9-9Β—-10~-10-10-10-10~-7-7-7-||-7~-7-7~-7-7Β—-7~-7-7~-7-7Β—-9~-9-9-9-9~-9-9Β—-10~-10-10-10-10~-------|
|----||----||----| x2|-7~-||-7~-||-7~-|
|----------------------------------||---5~------5~--------------5~-----||-----5~------5~-5-7-7-9-------5~--||----------------x-x-x-x-----------||-0~------3~-----3/5-5/7--3~-------||----------------------------------|
|-----------------------------------||---5~------5~--------------5~------||-----5~------5~-5-7-7-9-------5~-0-||----------------x-x-x-x------------||-0~------3~-----3/5-5/7--3~--------||-----------------------------------|
Chorus
|--------------------------------------------------------||--------------------------------------------------------||-----0~----0~------0~----0~------0~----0~------0~----0~-||---4~------------5~------------7~------------9~---------| x2|-2~------2~----3~------3~----5~------5~----7~------7~---||--------------------------------------------------------|
|----------------------------------------------------------------||----------------------------------------------------------------||----------------------------------------------------------------||-5-5-5-5-5-5-5-------------------5-5-5-5-5-5-5------------------||-3-3-3-3-3-3-3-0-5-5-5-5-5-5-5-0-3-3-3-3-3-3-3-0-3-3-3-3-3-3-3--||---------------0-5-5-5-5-5-5-5-0---------------0-3-3-3-3-3-3-3--| . . . . . . . . . . . . . . . . . . . . . . . . . . . . . . .
|----------------------------------------------------------------||----------------------------------------------------------------||----------------------------------------------------------------||-5-5-5-5-5-5-5-------------------5-5-5-5-5-5-5------------------||-3-3-3-3-3-3-3-0-5-5-5-5-5-5-5-0-3-3-3-3-3-3-3-0-3-3-3-3-3-3-3--||---------------0-5-5-5-5-5-5-5-0---------------0-3-3-3-3-3-3-3--|
|--------------------||---8-8-8-8-8-6-5----||-5---------------5--|(For this section repeat as many times needed)|--------------------||--------------------||--------------------|
Please rate this tab:
x1.0