Life Long Tragedy - Hey Death tab

TUNING: DROP D

INTRO/VERSE

Guitar 1 and 2

|-----------------||-----------------||-----------------||-8--7--5--3--12--| x2|-8--7--5--3--12--||-8--7--5--3--12--|
CHORUS Guitar 1
|-----------------||-6--5--10--8-----||-----------------||-----------------||-----------------||-----------------|
|-----------------||-6--5--10--12----||-----------------||-----------------||-----------------||-----------------|
Guitar 2
|-----------------||-----------------||-----------------||-8--7--5--3--12--| x2|-8--7--5--3--12--||-8--7--5--3--12--|
BREAK Guitar 1 and 2
|---------||---------||---------||-8---7---||-8---7---||-8---7---|
VERSE 2 Guitar 1 and 2
|-----------------||-----------------||-----------------||-8--7--5--3--12--| x2|-8--7--5--3--12--||-8--7--5--3--12--|
CHORUS Guitar 1
|-----------------||-6--5--10--12----||-----------------||-----------------||-----------------||-----------------|
Guitar 2
|-----------------||-----------------||-----------------||-8--7--5--3--12--||-8--7--5--3--12--||-8--7--5--3--12--|
BRIDGE Guitar 1
|----------------||----------------||----------------||-3h--5--3--0----||-3h--5--3--0----||-3h--5--3--0----|
Feedback, random open notes, whatever Guitar 1 and 2
|-----------------------------||-----------------------------||-----------------------------||-0--3h-3--0----3h--5--3------||-0--3h-3--0----3h--5--3------||-0--3h-3--0----3h--5--3------|
|-------------||-------------||-------------||-0--3h-3--0--||-0--3h-3--0--||-0--3h-3--0--| *
Tap to rate this tab
 
# A B C D E F G H I J K L M N O P Q R S T U V W X Y Z