Light This City – Beginning With Release tab

Light This City
Beginning With Release
C-G-C-F-A-D


Riff 1 melody part A ____-----------------------------------/ \--|----------------------------15-16-15-16-15-|-------------19-17~----15-17---------------|12/17~--15-17------------------------------|-------------------------------------------|-------------------------------------------|
-------------------------------|---15---------------15-16-18\--|17----17-15-14-15-17-----------|-------------------------------|-------------------------------|-------------------------------|
Riff 1 part B ____-----------------------------------/ \--|----------------------------15-16-15-16-15-|-------------19-17~----15-17---------------|--/17~--15-17------------------------------|-------------------------------------------|-------------------------------------------|
---------------------------------------|---15---------------15-16-18-16-15-----|17----17-15-14-15-17---------------15--|---------------------------------------|---------------------------------------|---------------------------------------|
part A again,thenRiff 1 Part c ____-----------------------------------/ \--|----------------------------15-16-15-16-15-|-------------19-17~----15-17---------------|--/17~--15-17------------------------------|-------------------------------------------|-------------------------------------------|
-----------------------------15-17-18-|---15---------------15-16-18----------|17----17-15-14-15-17------------------|--------------------------------------|--------------------------------------|--------------------------------------|then part A 4 more times
Riff 1 higher melody\harmony at 0:194 times ____ / \---------------------------13-15-13-15-13----|-------------18-16---15-16----------------16-|-/15~--14-15---------------------------------|---------------------------------------------|---------------------------------------------|---------------------------------------------|
13----------------13-15-17---|---16-15-13-15-16------------|-----------------------------|-----------------------------|-----------------------------|-----------------------------|
Riff 1 rythm Gt '*'=palm muteafter 1st time power chords filled in with picking---------------------------------------------------|---------------------------------------------------|---------------------------------------5-----------|----------------------*-3---*-3---*---*--*---*-5---|-5--0--1--3--5--0---*-1---*-1---*-1-*-3--3-*-3---3-|-5--0--1--3--5--0---1-----1-----1---3------3-------|
Riff 2 Gt 1 [heard in right ear]'///'=tremelo picked------------------------------------------------|------------------------------------------------|----------------------------------------_-------|-****---------------****-///-///-///---/ \------|555555-------------111111-3---1---0---0-1-0-----|555555-------------111111-------------------3---|
Gt 2 [left side]-------------------------]after 2nd time------|-------------------------]--------------------|-------------------------]--------------___---|-****-///-///-------****-]///-///-///--/ \--|555555-6--5-///////111111]-3---5---3--3-5-3-0-|555555-------8-7-3-111111]--------------------|
Riff 3 gt.1------------------------------------------------|------------------------------------------------|------///---------------------------------_-----|-****-5-///-///-//-//-****-///-///-///---/ \----|555555---8---5--3--0-111111-3---1---0---0-1-0---|555555---------------111111-------------------3-|
Gt 2 [left side]---------------------------------------------|---------------------------------------------|---------------------------------------___---|-****-///-///-------****-///-///-///--/ \--|555555-6--5-///////111111-3---5---3--3-5-3-0-|555555-------8-7-3-111111--------------------|
Riff 4 same as Riff 3 except tremelo picked notes are palm muted in triplets
interlude Gt.1 [right] 1:16----------------------------------|----------------------------------|--------****----------------------|--****-88888--10--7---------------|-55555-66666--8---5---------------|-55555----------------------------|
Gt.2----------------------------------|----------------------------------|-7------12---------14--15--14-10--|-x****--x--*-*-*-*--x---x--x--x---|-55555--1010101010-12--13--12-8---|----------------------------------|
Riff 5[right]just showing chord progression------------------------]---------------------|------2 times---------------------------------|-----------------------------*--*--8--*-*-----|------------8---10---12-]--*-7--10---10-7-*---|-5-----8----6---8----10-]--7-------------10-7-|-5-----8----------------]---------------------|
Riff 5 [Left] 1:19-1:58,2:46-3:24-------------------------------------------|-------------------------------------------|--------------------/10--------------10----|---8--*-10--*-12--*-----12-10-8-10-12--12--|-10--10----10----10------------------------|-------------------------------------------|
---------------------------------------------|---------------------------------------------|---------------------/12-10---------10-12-10-|---10--*-12--*-15---*-------12-10-12---------|-12---12----12----12-------------------------|---------------------------------------------|
-------------------------------------------|-------------------------------------------|--------------------/10--------------10----|---8--*-10--*-12--*-----12-10-8-10-12--12--|-10--10----10----10------------------------|-------------------------------------------|
--------------------------------------------|--------------------------------------------|-----------------------12-10----14-10---15\-|---10--*-12--*-15-*--15------12-------12----|-12---12----12----12------------------------|--------------------------------------------|
riff 5 lower harmony on right at 1:38-----------------------------------|-----------------------------------|---------------7-----------7-------|-*-5-*-7-*-8-*---8-7-5-7-8---8-----|-6---6---6---6---------------------|-----------------------------------|
---------------------------------|---------------------------------|----------------8-7------------7-|-*-7-*-8-*-10-*----10-8-7-8-10---|-8---8---8----8------------------|---------------------------------|
-----------------------------------|-----------------------------------|---------------7-----------7-------|-*-5-*-7-*-8-*---8-7-5-7-8---8-----|-6---6---6---6---------------------|-----------------------------------|
-----------------------------------|-----------------------------------|----------------*-8-5-*-10-7-*-12\-|-*-7-*-8-*-10-*-6-----6------8-----|-8---8---8----8--------------------|-----------------------------------|
hybrid Riff 4 2:00-2:17Riff 6 rythm [left] 2:18-2:46--------------------------------|--------------------------------|--------------------------------|********************************5555555555555555111111111111111155555555555555551111111111111111
--------------------------------|--------------------------------|--------------------------------|********************************8888888888888888333333333333333388888888888888883333333333333333
----------------------------------|----------------------------------|----------------------------------|---**------**---------------------|5--55---5--55-3-*-5-*-5-*-3-*-5---|5--55---5--55---5---5---5---5---5-|
----------------------------------|----------------------------------|----------------------------------|---**------**---------------------|1--11---1--11-1-*-5-*-3-*-1-*-0-*-|1--11---1--11---1---1---1---1---1-|
----------------------------------|----------------------------------|----------------------------------|---**------**-----3---------------|3--33---3--33-3-*--*-6-*-5-*-3-*--|3--33---3--33---3--3---3---3---3--|
end of riffafter 1st time---------------_----------------__----|--------------/ \--------------/ \---|-3-*-*-3-*-*-3-5-3-2-*-*-2-*-*-2-3-2--|---5-3---5-3---------3-0---3-0--------|--------------------------------------|--------------------------------------|
after 2nd time---------------_--------------|--------------/ \--------ph---|-3-*-*-3-*-*-3-5-3-2--3--3~~--|---5-3---5-3------------------|------------------------------|------------------------------|
Riff 6 melody 2:18-2:46------------------------------------------------|------------------------------------------------|*-*-*-*-*-*-*-*-*-*-*-*-*-*-*-*-*-*-*-*-*-*-*---|5-5-5-5-5-5-5-5-8-8-8-8-7-7-8-8-5-5-5-5-5-5-5-5-|------------------------------------------------|------------------------------------------------|
---------------------------------------------|-*-*-*-*---------*-*-*-*-*-*-*-*-*--*--*--*--|-7-7-5-5-*-*-*-*-7-7-7-7-7-7-7-7-10-10-10-10-|---------8-8-7-7-----------------------------|---------------------------------------------|---------------------------------------------|
--------------------------------------|*-*-*-*-*-*-*-*-*-*-*-*---------------|8-8-7-7-5-5-5-5-5-5-5-5-7-7-7-7-8~~~\-|--------------------------------------|--------------------------------------|--------------------------------------|
---------------------------------|---------------------------------|---------------------------------|-5----5----5---8----8----7----8--|---**---**---*---*----*----*-----|---55---55---5---5----5----5-----|
-----------------------------------|-----------------------------------|----------------7---5--------------|-5-**-5-**-5-*----*----*-8-*--7-*--|---66---66---6----6---6----6----6--|-----------------------------------|
---------------------------------|---------------------------------|---------------10--8---7---------|-7-**-7-**-7-*---*---*---*-10-*--|---88---88---8---8---8---8----8--|---------------------------------|
1st time ending------------_---------------_----|-----------/ \-------------/ \---|7-**-7-**-7-8-7-5-**-5-**-5-7-5--|--88---88---------77---77--------|---------------------------------|---------------------------------|
2nd time-------------_-------------------|------------/ \-------ph---------|-7-**-7-**-7-8-7-5-7--7~~~-------|---88---88-----------------------|---------------------------------|---------------------------------|
melody interlude 3:25 gt1 1st melody [lower] fades to right part A once thru ,2nd time stops after the note '14'
-------------------------|--------__---------------|-------/ \--------------|-8-10-8-10-8---8---------|-------------12--12-10-8-|-------------------------|
2nd melody [left] after the note'13'--------------------------------|---------____-------------------|--------/ \------------------|-12-13-12-13-12----12-----------|----------------15----15-13-----|----------------------------15--|
Riff 7 melody 1 3:34--------------------------------------------------------|--------------------------------------------------------|----*-7-8-7-5-7-5---5----------*-7-8-7-5-7-5-7-10-12-12-|-*--8-------------8---8-7---*--8------------------------|-10-----------------------8-10--------------------------|--------------------------------------------------------|
2nd melody 3:53 [left]--------------------------------------------------------------|--------------------------------------------------------------|----*-10-12-10-8-10-8--8---------*10-12-10-8-10-8-10-14-15-15-|-*-12----------------12-12-10-8-*12---------------------------|13-----------------------------13-----------------------------|--------------------------------------------------------------|
rythm-------------]--------------------|rythm during solo-------------]--------------------|-------------]--------------------|----8--7--10-]-----8-10-11--------|-5--6--5--8--]-5-8-6-8--9---------|-5-----------]-5-8----------------|
Please rate this tab:
x1.0