Light This City - Letter To My Abuser tab

-------------------------------------------------------------------------------
			     LETTER TO MY ABUSER - Light This City
-------------------------------------------------------------------------------
Tabbed by: Cody
Email: The7vines77@aol.com

Tuning:CGCFAD

(0:00 - 0:29)|---------------------------------------------------||---------------------------------------------------||---------------------------------------------------||-0--------------------------0----------------------||-0----------8p7-----5h7-----0----------8p7-----5h7-||-0--0-0-0-0-----0-0-----0-0-0--0-0-0-0-----0-0-----|
---------------------------------------------------------|---------------------------------------------------------|---------------------------------------------------------|-----8----------------------------7------------------7h8-|-----8----------10p8-----7h8------7----------7h8---------|-0-0-8--8-8-8-8------8-8------8-8-7--7-7-7-7-----7-7-----|
(0:29-0:44)-harmony comes in about halfway through|---------------------------------------------------||---------------------------------------------------||---------------------------------------------------||-0------------10------------8------------7---------||-0-7h8h10p8p7-10-7h8h10p8p7-8-7h8h10p8p7-7-7h8p7\5-||-0------------10------------8------------7---------|
(0:44-0:47)|------------------||------------------||------------------||-8--10--7-7-7-7-7-||-8--10--7-7-7-7-7-||-8--10--7-7-7-7-7-|
(0:48-1:00)|---------------------------------------------------||---------------------------------------------------||---------------------------------------------------||-0--------------------------0----------------------||-0----------8p7-----5h7-----0----------8p7-----5h7-||-0--0-0-0-0-----0-0-----0-0-0--0-0-0-0-----0-0-----|
---------------------------------------------------------|---------------------------------------------------------|---------------------------------------------------------|-----8----------------------------7------------------7h8-|-----8----------10p8-----7h8------7----------7h8---------|-0-0-8--8-8-8-8------8-8------8-8-7--7-7-7-7-----7-7-----|
(1:00-1:12)|-----------------------------------------------------------||-----------------------------------------------------------||-----------------------------------------------------------||-0-------------------------------0-------------------------||-0----------12p10-----8h10-------0----------12p10-----8h10-||-0--0-0-0-0-------0-0--------0-0-0--0-0-0-0-------0-0------|
------------------------------------------------------------|------------------------------------------------------------|------------------------------------------------------------|-----8-------------------------------7------------------7h8-|-----8----------13p12-----10h12------7----------7h8---------|-0-0-8--8-8-8-8-------8-8--------8-8-7--7-7-7-7-----7-7-----|
(1:12-1:27)-harmony comes in about halfway through|---------------------------------------------------||---------------------------------------------------||---------------------------------------------------||-0------------10------------8------------7---------||-0-7h8h10p8p7-10-7h8h10p8p7-8-7h8h10p8p7-7-7h8p7\5-||-0------------10------------8------------7---------|
(1:27-1:30)|---------------------||---------------------||---------------------||-8--10--7xxxxxxxxxxx-||-8--10--7xxxxxxxxxxx-||-8--10--7xxxxxxxxxxx-|
| / slide up | \ slide down | h hammer-on | p pull-off | ~ vibrato | + harmonic | x Mute note =======================
Tap to rate this tab
 
# A B C D E F G H I J K L M N O P Q R S T U V W X Y Z