Light This City - Last Catastrophe tab

Song:>>>>>>>The Last Catastrophe
Band:>>>>>>>Light This City
Tabbed by:>>Sara

This took me a while to figure out, and it's as close as I can get it.
I just thought I'd share it since I couldn't find a tab of it anywhere else. It isn't 
hard of a song to play. Hope it helps.

Guitar 1start>>(0:00)end>>>>(1:15)|-11------------||--------13-----||-12-(12)--(12)-||---------------| >> X3|---------------||---------------|
|-11------------||--------13-----||-12-(12)-------||---------------| >> X 1|---------------||---------------|
|-11--------------||--------12-------||-12-(12)---(12)--||-----------------| >> X 3|-----------------||-----------------|
|-11------------||--------12-----||-12-(12)-------||---------------| >> X 1|---------------||---------------|
Guitar 2 [play all of these quietly.]start>>(0:00)end>>>>(1:14)|-----------------------------||-----------------------------||-----------------------------||-10--10--10--10--9--9--9--9--||-----------------------------||-----------------------------|
Guitar 3start>>(0:22)end>>>>(1:05)|-------------------------------||-------------------------------||-------------------------------||-------------------------------||--6--6--6--6--6--6--6--6-------||-8--8--8--8--8--8--8--8--------|
|-------------------------------||-------------------------------||-------------------------------||-------------------------------||--6--6--6--6--6--6--6--6-------||-7--7--7--7--7--7--7--7--------|
1:15-1:17|---------------||---------------||-xxxxxxxx------||-xxxxxxxx------||-xxxxxxxx------||---------------|
1:17-end|------------------------||------------------------||-1717171717-1616161616--||-xxxxxxxxxx-xxxxxxxxxx--||-1515151515-1414141414--||------------------------|
you could play it like this too. which ever one sounds closer or is easier for you.
guitar 1|-------------------||-16----------------||---------17--------||-17-(17)---(17)----| >> X3|-------------------||-------------------|
|---------------||-16------------||---------17----||-17-(17)-------| >> X 1|---------------||---------------|
|-------------------||-16----------------||---------16--------||-17-(17)---(17)----| >> X3|-------------------||-------------------|
|---------------||-16------------||---------16----||-17-(17)-------| >> X 1|---------------||---------------|
1:17|-----------------------------||-----------------------------||-----------------------------||--161616161616-161616161616--||--171717171717-161616161717--||--171717171717-171717171717--|
Tap to rate this tab
 
# A B C D E F G H I J K L M N O P Q R S T U V W X Y Z