Limp Bizkit - Build A Bridge tab

Build a Bridge
Limp Bizkit
Standard tuning: EADGBe

/ - slide up
\ - slide down
b - bend 


|----------------------------------------------------------------||----------------------------------------------------------------||---------4---------------4--------------4---------------4-------||-----2-----2---2-----2-----2---2-----2----2---2-----2-----2---2-||---2---2-----------2---2-----------2---2----2-----2---2-----2---||-4-----------4---5-----------5---0--------------0---------------|
|----------------------------------------------------------------||----------------------------------------------------------------||---------4---------------4--------------4---------------4-------||-----2-----2---2-----2-----2---2-----2----2---2-----2-----2---2-||---2---2-----------2---2-----------2---2----2-----2---2-----2---||-4-----------4---5-----------5---0--------------0---------------|
|-------------------------------------------------||-------------------------------------------------||-6--6--6-6--4-4--4-4-4-4-------------------------||-6--6--6-6--4-4--4-4-4-4--4--4--4-4-4-4-4-4-4-4--||-4--4--4-4--2-2--2-2-2-2--4--4--4-4-4-4-4-4-4-4--||--------------------------2--2--2-2-2-2-2-2-2-2--|
|-----------------------------||-----------------------------||-6--6--6-6--4-4--4-4-4-4-----||-6--6--6-6--4-4--4-4-4-4-----||-4--4--4-4--2-2--2-2-2-2--4b-||--------------------------2b-|
|----------------------------------------------------------------||----------------------------------------------------------------||---------4---------------4--------------4---------------4-------||-----2-----2---2-----2-----2---2-----2----2---2-----2-----2---2-||---2---2-----------2---2-----------2---2----2-----2---2-----2---||-4-----------4---5-----------5---0--------------0---------------|
|----------------------------------------------------------------||----------------------------------------------------------------||---------4---------------4--------------4---------------4-------||-----2-----2---2-----2-----2---2-----2----2---2-----2-----2---2-||---2---2-----------2---2-----------2---2----2-----2---2-----2---||-4-----------4---5-----------5---0--------------0---------------|
|--------------|--------------|--------------|--------------||--------------|--------------|--------------|--------------||--------------|--------------|--------------|--------------||---6\---4-----|---6\---4-----|---6\---4-----|--6\---4------||-4----2----4b-|-4----2----4b-|-4----2----4b-|-4----2----4b-||-----------2b-|-----------2b-|-----------2b-|-----------2b-|
|---------------------------------------------------||---------------------------------------------------||-8--8--8-8-8--6-6--6-6-6-6-------------------------||-8--8--8-8-8--6-6--6-6-6-6--6--6--6-6-6-6-6-6-6-6--||-6--6--6-6-6--4-4--4-4-4-4--6--6--6-6-6-6-6-6-6-6--||----------------------------4--4--4-4-4-4-4-4-4-4--|
|-------------------------------||-------------------------------||-8--8--8-8-8--6-6--6-6-6-6-----||-8--8--8-8-8--6-6--6-6-6-6-----||-6--6--6-6-6--4-4--4-4-4-4--6b-||----------------------------4b-|
|---------------------------------------------------||---------------------------------------------------||-6--6--6-6-6--4-4--4-4-4-4-------------------------||-6--6--6-6-6--4-4--4-4-4-4--4--4--4-4-4-4-4-4-4-4--||-4--4--4-4-4--2-2--2-2-2-2--4--4--4-4-4-4-4-4-4-4--||----------------------------2--2--2-2-2-2-2-2-2-2--|
|-----------------------------||-----------------------------||-6--6--6-6--4-4--4-4-4-4-----||-6--6--6-6--4-4--4-4-4-4-----||-4--4--4-4--2-2--2-2-2-2--4b-||--------------------------2b-|
Thatís basically it. If you donít agree donít bother telling me. Iíll get it. So have good one.
Tap to rate this tab
 
# A B C D E F G H I J K L M N O P Q R S T U V W X Y Z