Limp Bizkit - Creamer tab

Tab: Creamer
Artist: LB
Album: Results May Vary

To me this is one of Limp Bizkit's best song and sadly I can't find any
tabs witht he intro in it so I tabbed it myself..it may not be 100% perfect,
in fact prolly not even 50% perfect :D please note that I only had time to
tab guitar 1, i'll try and tab guitar 2 but time is always against us.

Intro:

Guitar 1

Intro:E|---------------------------|---------------------------|B|--9----9----9--------------|--9----9----9--------------|G|--8----8----8--------------|--8----8----8--------------|D|--6----6----6--------------|--6----6----6--------------|A|---------------------------|---------------------------|E|-----4----4----4--4--4--4--|-----4----4----4--4--4--4--| (x3)
Verse:
E|-------------------------------|-------------------------------|B|-----4--5--0-5-4-5-4-2-0-4-2-0-|-----4--5--0-5-7-5-4-5-4-2-4-2-|G|--1----------------------------|--1----------------------------|D|-------------------------------|-------------------------------|A|-------------------------------|-------------------------------|E|-------------------------------|-------------------------------| (x7)
Chorus:
E|----------------------------------|B|----0-----0-----0-----------------|G|--------------------2-----2-----2-|D|--2---2-2---2-2---2---2-2---2-2---|A|----------------------------------|E|----------------------------------| (x6)
Verse:
E|-------------------------------|-------------------------------|B|-----4--5--0-5-4-5-4-2-0-4-2-0-|-----4--5--0-5-7-5-4-5-4-2-4-2-|G|--1----------------------------|--1----------------------------|D|-------------------------------|-------------------------------|A|-------------------------------|-------------------------------|E|-------------------------------|-------------------------------| (x7)
Chorus:
E|----------------------------------|B|----0-----0-----0-----------------|G|--------------------2-----2-----2-|D|--2---2-2---2-2---2---2-2---2-2---|A|----------------------------------|E|----------------------------------| (x6)
--------4----4----4----4----|---------------------------|-----7----2----2----2----2--|-----4--5----5----4--5--4--|--1-------------------------|--1-------1----1-----------|----------------------------|---------------------------|----------------------------|---------------------------|----------------------------|---------------------------|
----------------------------|----------------------------|-----5--7----7----7----7----|-----0--2----2----2----2----|--4-------4----4----4----4--|----------------------------|----------------------------|--4-------4----4----4----4--|----------------------------|----------------------------|----------------------------|----------------------------|
--------4----4----4----4----|---------------------------|-----7----2----2----2----2--|-----4--5----5----4--5--4--|--1-------------------------|--1-------1----1-----------|----------------------------|---------------------------|----------------------------|---------------------------|----------------------------|---------------------------|
----------------------------|----------------------------|-----5--7----7----7----7----|-----0--2----2----2----2----|--4-------4----4----4----4--|----------------------------|----------------------------|--4-------4----4----4----4--|----------------------------|----------------------------|----------------------------|----------------------------|
--------4----4----4----4----|---------------------------|-----7----2----2----2----2--|-----4--5----5----4--5--4--|--1-------------------------|--1-------1----1-----------|----------------------------|---------------------------|----------------------------|---------------------------|----------------------------|---------------------------|
----------------------------|----------------------------|-----5--7----7----7----7----|-----0--2----2----2----2----|--4-------4----4----4----4--|----------------------------|----------------------------|--4-------4----4----4----4--|----------------------------|----------------------------|----------------------------|----------------------------|
--------4----4----4----4----|---------------------------|-----7----2----2----2----2--|-----4--5----5----4--5--4--|--1-------------------------|--1-------1----1-----------|----------------------------|---------------------------|----------------------------|---------------------------|----------------------------|---------------------------|
----------------------------|----------------------------|-----5--7----7----7----7----|-----0--2----2----2----2----|--4-------4----4----4----4--|----------------------------|----------------------------|--4-------4----4----4----4--|----------------------------|----------------------------|----------------------------|----------------------------|
Chorus:
---------------------------|---------------------------|--9----9----9--------------|--9----9----9--------------|--8----8----8--------------|--8----8----8--------------|--6----6----6--------------|--6----6----6--------------|---------------------------|---------------------------|-----4----4----4--4--4--4--|-----4----4----4--4--4--4--| (x3)
There we go w00t
Tap to rate this tab
 
# A B C D E F G H I J K L M N O P Q R S T U V W X Y Z