Limp Bizkit - Home Sweet Home Bittersweet Symphony tab

                    Home Sweet Home / Bittersweet Symphony                      


                                                
Wes Borland (Distortion)



                                                                                

after 
Home..
                                                                            
|--------------------|-------------------|--------------------||--------------------|-------------------|--------------------||--------------------|-------------------|--------------------||--4--------3--------|--1----------------|--4--------3--------||--------------------|-------------------|--------------------||--------------------|-------------------|--------------------|
--------------------|------------------------|-------------------------|--------------------|-----1-------1-------1--|-----1--1-----1-------1--|--------------------|--3-------3-------3-----|--3--------3-------3-----|--1--------1/-------|------------------------|-------------------------|--------------------|------------------------|-------------------------|--------------------|------------------------|-------------------------|
------------------------|-----------------------|------------------------|-----1-------1-------1--|-------1-------1-------|-----1-------1-------1--|--3-------3-------3-----|----3-------3-------3--|--3-------3-------3-----|------------------------|-----------------------|------------------------|------------------------|-----------------------|------------------------|------------------------|-----------------------|------------------------|
-------------------------|------------------------|-----------------------|-----1--1-----1-------1--|-----1-------1-------1--|-------1-------1-------|--3--------3-------3-----|--3-------3-------3-----|----3-------3-------3--|-------------------------|------------------------|-----------------------|-------------------------|------------------------|-----------------------|-------------------------|------------------------|-----------------------|
----------------------|----------------------|---------------------|----------------------|--1----1----1----1----|--4----4--------4----|--3----3----3----3----|----------------------|---------------------|----------------------|----------------------|---------------------|----------------------|----------------------|---------------------|----------------------|----------------------|---------------------|
------------------|----|----|----|----|----------------------|------------------|----|----|----|----|----------------------|------------------|----|----|----|----|--3----3----3----3----|------------------|----|----|----|----|----------------------|------------------|----|----|----|----|----------------------|------------------|----|----|----|----|----------------------|
----------------------|---------------------|------------------|----|----|----|--1----1----1----1----|--4----4--------4----|------------------|----|----|----|----------------------|---------------------|------------------|----|----|----|----------------------|---------------------|------------------|----|----|----|----------------------|---------------------|------------------|----|----|----|----------------------|---------------------|------------------|----|----|----|
----|----------------------|----------------------|---------------------|----|----------------------|--1----1----1----1----|--4----4--------4----|----|--3----3----3----3----|----------------------|---------------------|----|----------------------|----------------------|---------------------|----|----------------------|----------------------|---------------------|----|----------------------|----------------------|---------------------|
------------------|----|----|----|----|-------------------------|------------------|----|----|----|----|-----1--1-----1-------1--|------------------|----|----|----|----|--3--------3-------3-----|------------------|----|----|----|----|-------------------------|------------------|----|----|----|----|-------------------------|------------------|----|----|----|----|-------------------------|
-------------------------|------------------------|------------------|-----1--1-----1-------1--|-----1--1-----1----4----|------------------|--3--------3-------3-----|--3--------3------------|------------------|-------------------------|------------------------|------------------|-------------------------|------------------------|------------------|-------------------------|------------------------|------------------|
--9--------8--------|--6----------------|--13--------11--------|--------------------|-------------------|----------------------|--------------------|-------------------|----------------------|--------------------|-------------------|----------------------|--------------------|-------------------|----------------------|--------------------|-------------------|----------------------|
Solo
------------------|--9b------------------|------9-----------------9--|------------------|-----------11------9--|--11-----11------9--11-----|------------------|----------------------|---------------------------|------------------|----------------------|---------------------------|------------------|----------------------|---------------------------|------------------|----------------------|---------------------------|
---------------9------9--11--|--13--11--13--16--16--13--16--18--|--11----9--11-----11---------|----------------------------------|-----------------------------|----------------------------------|-----------------------------|----------------------------------|-----------------------------|----------------------------------|-----------------------------|----------------------------------|
--21--------20------18--|--18----------------|--21r-------20------18--|------------------------|--------------------|------------------------|------------------------|--------------------|------------------------|------------------------|--------------------|------------------------|------------------------|--------------------|------------------------|------------------------|--------------------|------------------------|
--18----21----18-21-20-18------|-------------------------------|-------------------------------|-------------------------------|-------------------------------|-------------------------------|
--21--20--18--20--18--18--20--18--16--18--16--16--|--------------------------------------------------|--------------------------------------------------|--------------------------------------------------|--------------------------------------------------|--------------------------------------------------|
--18--16--15--18--15--15--16--14--13--14--13--13--|--------------------------------------------------|--------------------------------------------------|--------------------------------------------------|--------------------------------------------------|--------------------------------------------------|
--14--13--11--13--11--11--13--11--9--11--9--9--|-----------------------------------------------|-----------------------------------------------|-----------------------------------------------|-----------------------------------------------|-----------------------------------------------|
--11--9--8--9--8--8--9--8--6--8--6--6--|--9----------------|------------------|---------------------------------------|-------------------|------------------|---------------------------------------|-------------------|------------------|---------------------------------------|-------------------|------------------|---------------------------------------|-------------------|------------------|---------------------------------------|-------------------|------------------|_____________________________________________________________________________
Home Sweet Home / Bittersweet Symphony Wes Borland (Accoustic) open
|-----------------------|------------------------||------|------|-----------------------|------------------------||--3----3----3----3--3--|--x--x--3----3----3--3--||------|------|--4----4----4----4--4--|--x--x--4----4----4--4--||------|------|--4----4----4----4--4--|--x--x--4----4----4--4--||------|------|--2----2----2----2--2--|--x--x--2----2----2--2--|
-----------------------|------------------------|-----------------------|-----------------------|------------------------|--3----3----3----3--3--|--5----5----5----5--5--|--x--x--5----5----5--5--|--3----3----3----3--3--|--6----6----6----6--6--|--x--x--6----6----6--6--|--3----3----3----3--3--|--6----6----6----6--6--|--x--x--6----6----6--6--|--1----1----1----1--1--|--4----4----4----4--4--|--x--x--4----4----4--4--|-----------------------|
------------------------|-----------------------|------------------------|--------3----3----3--3--|--3----3----3----3--3--|--------3----3----3--3--|--x--x--3----3----3--3--|--3----3----3----3--3--|--x--x--3----3----3--3--|--x--x--3----3----3--3--|--3----3----3----3--3--|--x--x--3----3----3--3--|--x--x--1----1----1--1--|--1----1----1----1--1--|--x--x--1----1----1--1--|--x--x------------------|-----------------------|--x--x------------------|
with distortion there no change i can change...
|----------------------|----------------------|----------------------||----------------------|--1----1----1----1----|--4----4----4----4----||--3----3----3----3----|----------------------|----------------------||----------------------|----------------------|--1-------------------||--1----1----1----1----|--3----3----3----3----|-------6----6----6----||----------------------|----------------------|----------------------|
----------------------|------|------|------|------|------|------|------|------|--4----4----4----4----|------|------|------|------|------|------|------|------|----------------------|------|------|------|------|------|------|------|------|----------------------|------|------|------|------|------|------|------|------|--6----6----6----6----|------|------|------|------|------|------|------|------|----------------------|------|------|------|------|------|------|------|------|
Tap to rate this tab
 
# A B C D E F G H I J K L M N O P Q R S T U V W X Y Z