Lincoln Brewster – The Power Of Your Name tab ver. 2

Power of Your Name 
By Lincoln Brewster copyright 2008

Capo 2nd Fret so you would play 2 open on the capo
This is my first tab so its far from perfect but
should give you a good start.  

Intro|----------------------||--------10-5-7-3-5-2--||----------------------||----\11----5-7-4-5-4--||----------------------||-2--------------------|
|-------------------9--||--------10-5-7-3-5----||----------------------||----\11----5-7-4-5-11-||----------------------||-2--------------------|
(D) (A/C#) C G/B|------------------------------------------||------------------------5---------5---5---||-------2h4h6p4p2---2----------------------||-2h4h6-----------6---/6---4-2---4---------||------------------------------5-------4---||------------------------------------------|
(D) (A/C#) (E/G#) C G/B D/F# |-------------------------------------------------------||--------------------------------------5---5-3------5---||-------2-4p2------------6-2------------------------4---||-2h4h6-------6p2--2h4h6-----6-4-2---2---------4h2------||----------------------------------5-----4--------------||---------------------------------------------------4---|
|----------------------||--------10-5-7-3-5-2--||----------------------||----\11----5-7-4-5-4--||----------------------||-2--------------------|
Start Piano F#m D E
|-------------------------||-------------------------||-2h4h6p4p2---4p2---------||-----------6-----6-4-2-4-||-------------------------||-------------------------|
|----------------------------------||----10-7-10-7----------9---9------||-------------------------9---9----||-/11---7-11-7-------/9------------||----------------------------------||----------------------------------|
|----------------------------------||----10-7-10-7-----7----9-----9--5-||--------------7----------9--------||-/11---7-11-7---7---/9-----9----6-||----------------------------------||----------------------------------|
Verse (Variations of These)
|--------------------------------||-10-7-9----10-7-9---10-10-9-9---||--------------------------------||-11-7-9----11-7-9---11-11-9-9---||--------------------------------||--------------------------------|
|----------------------------------------||-10-7-9------------10--------------10-9-||----------------11--------------11------||-11-7-9------11-------11-9---11---------||-----------9---------------9-------11-9-||----------------------------------------|
|-------------------------||-10-7-9----10-7-9---7-9--||-------------------------||-11-7-9----11-7-9---7-9--||-------------------------||-------------------------|
Verse F#m D E x3 D E Capo Em C D x3 C D Chorus A E D2 E Capo G D C2 D Interlude F#m D E Capo Em C D Bridge D E D F#m D E D E Capo C D C Em C D C D
Please rate this tab:
x1.0