Lincoln Brewster - Reaching For You tab version 1

E||--17--------------------|------------------------|------------------------|B||-------------17---------|------------------------|--17---------17~----15--|G||------14~---------------|--16---------16---------|------14~---------------|D||-----------------14~----|-----------------14~----|------------------------|A||------------------------|------14~---------------|------------------------|E||------------------------|------------------------|------------------------|
------|-------------------------|---------------17p----14----|--14--|--15--17-----------------|----------------------------|------|------------14----14h----|--16----14~-----------------|------|-------------------------|----------------------------|------|-------------------------|----------------------------|------|-------------------------|----------------------------|
--16p----14-----------------|----------------------------|---------------17p----14----|--------17p----14-----------|----------------------------|--16-----------------16h----|----------------------------|----------------------------|----------------------------|----------------------------|----------------------------|----------------------------|
---------------------------|----------------------------|---------------------------|----------------------------|--14----------16p----14----|---------------14-----------|--------16-----------------|--16p----14----------16h----|---------------------------|----------------------------|---------------------------|----------------------------|
---------------------------|-----------------------------|---------------------------|-----------------------------|---------------------------|-----------------------------|--14-----------------14----|-----------------------------|--------16p----14----------|--14S----16----\14----12~----|---------------------------|-----------------------------|
-----------------------------|----------------------------|--17b------------------------|----------------------------|---------------16b----16~----|--14----16----/18----\16----|---------14------------------|----------------------------|-----------------------------|----------------------------|-----------------------------|----------------------------|
---------------16----------|--------16----17----19----|--17b----19----------17----|--19----------------------|---------------------------|--------------------------|---------------------------|--------------------------|---------------------------|--------------------------|---------------------------|--------------------------|
--17----------19----------|--19----/21----21~----21b~----|--------17----------17----|------------------------------|--------------------------|------------------------------|--------------------------|------------------------------|--------------------------|------------------------------|--------------------------|------------------------------|
--21----19----17----21----|--19~----17p----14----16h----|--------------------------|-----------------------------|--------------------------|-----------------------------|--------------------------|-----------------------------|--------------------------|-----------------------------|--------------------------|-----------------------------|
--14-----------------------|----------------------------|--------17p----14----------|--17p----14-----------------|---------------------16----|---------------16p----14----|---------------------------|----------------------------|---------------------------|----------------------------|---------------------------|----------------------------|
---------------------------|----------------------------|---------------------------|----------------------------|--------16p----14----------|----------------------------|--16-----------------------|--14------------------------|---------------------16----|--------16-----14p----12----|---------------------------|----------------------------|
----------------------------|---------------------------|----------------------------|---------------------------|----------------------------|--------14----------14h----|----------------------------|--14----------14-----------|--------12h----14----/16----|---------------------------|--14------------------------|---------------------------|
----------------------------|--17----------19----------|---------------17----/19----|--------17----------17----|--16----/18-----------------|--------------------------|----------------------------|--------------------------|----------------------------|--------------------------|----------------------------|--------------------------|
--/21----21~----|-------||----------------|-------||----------------|-------||----------------|-------||----------------|-------||----------------|-------||
Tablature Legend ---------------- L - tied note x - dead note g - grace note (n) - ghost note > - accentuded note NH - natural harmonic AH - artificial harmonic TH - tapped harmonic SH - semi harmonic PH - pitch harmonic h - hammer on p - pull off b - bend br - bendRelease pb - preBend pbr - preBendRelease brb - bendReleaseBend \n/ - tremolo bar dip \n - tremolo bar dive -/n - tremolo bar Release up /n\ - tremolo bar inverted dip /n - tremolo bar return -\n - tremolo bar Release down S - shift slide s - legato slide / - slide into from below or out of upwards \ - slide into from above or out of downwards ~ - vibrato W - wide vibrato tr - trill TP - tremolo picking T - tapping S - slap P - pop < - fade in ^ - brush up v - brush down
Tap to rate this tab
 
# A B C D E F G H I J K L M N O P Q R S T U V W X Y Z