Lincoln Brewster - Power Of Your Name tab

Power of Your Name
By Lincoln Brewster copyright 2008
Key: G, original in A

Reference source: http://www.911tabs.com/link/?7244374

IntroE|----------------------| |-----------------7--|B|-------8-5-7-3-5-0----| |-------8-5-7-3-5----|G|----------------------| |--------------------|D|----\9---5-7-4-5-2----| |----\9---5-7-4-5-9--|A|----------------------| |--------------------|E|-0--------------------| |-0------------------|
|------------------------------------------||------------------------3---------3---3---||-------0h2h4p2p0---0----------------------||-0h2h4-----------4---/4---2-0---2---------||------------------------------3-------2---||------------------------------------------|
|-------------------------------------------------------||--------------------------------------3---3-1------3---||-------0-2p0---0--------4-0-------------------2h0--2---||-0h2h4-------4----0h2h4-----4-2-0---0------------------||----------------------------------3-----2--------------||---------------------------------------------------2---|
|----------------------||-------8-5-7-3-5-0----||----------------------||----\9---5-7-4-5-2----||----------------------||-0--------------------|
Start Piano Em C D
|-------------------------------||-------------------------------||-0h2b4b2-0h2p0-------2-0-------||---------------2-0h2-----2-0h2-||-------------------------------||-------------------------------|
|------------------------------------||----8-5-8-5----------7---7----------||-----------------------9---7--------||-/9---5-9-5-------/7----------------||------------------------------------||------------------------------------|
|--------------------------------||----8-5-8-5-5------------7------||---------------------7-----7----||-/9---5-9-5-5-----/7---7--------||--------------------------------||--------------------------------|
Verse|--------------------------------||-8-5-7----8-5-----7---8-8s7-7---||--------------------------------||-9-5-7----9-5-5s7-----9-9s7-7---||--------------------------------||--------------------------------|
|------------------------------------------||----8-5-8-5---7--------3-----------3-8-7--||---------------------0-----------0--------||-/9---5-9-5-5s7----5-----5-4-4h5-----9-7--||------------------------------------------||------------------------------------------|
|-------------------------------------||-8-5--7----8-8---8-------7---8-8s7-7-||---------------9---9-----------------||-9-5s7-----9---------5s7-----9-9s7-7-||-------------------------------------||-------------------------------------|
|--------------------0-------0-------------------0----||-8-5-----7---7--------3-------3-------3-----------3--||-----------9------0-------0---------0---0-----0------||-9-5-5s7--------5-------5-------4h5-------4h5--------||-----------------------------------------------------||-----------------------------------------------------|
Chorus pick pattern:|-----------------------------------------||---3----3----3----3----3----3----3----3--||--0-0--0-0--0-0--0-0--0-0--0-0--0-0--0-0-||-5----5----4----4----2----2----4----4----||-----------------------------------------||-----------------------------------------|
Pre-Verse:|----------------------------------------------||----8-5-8-5-----7-7h8p7------8-5-8-5-------8-7||-----------------------7----------------------||-\9---5-9-5-5s7---------7s9--9-5-9-5-5h7s9----||----------------------------------------------||----------------------------------------------|
|--------------------------------------------||--8-5-----7-7h8p7---------------7-8-8-10-7--||------------------9-7h9-7-------------------||-\9-5-5s7-----------------9--\9---9-9-9--7--||--------------------------------------------||--------------------------------------------|
|------------------------0-------0-------------------0----||--8-5-----8p7---7---------3-------3-------3-----------3--||----------------------0-------0---------0---0-----0------||-\9-5-5s7-----9-----5-------5-------4h5-------4h5--------||---------------------------------------------------------||---------------------------------------------------------|
**Chorus pick pattern, varies fr 1st:|--------0---------0---------0---------0--||---3-----3---3-----3---3-----3---3-----3-||--0-0--0----0-0--0----0-0--0----0-0--0---||-5----5----4----4----2----2----4----4----||-----------------------------------------||-----------------------------------------|
Pre-Bridge:|------------------------------------------------||-----1-----3-----5-----7-----8------10-------12-||---0--------------------------------------------||-2-----2s4---4s5---5s7---7s9---9s10----10s12----||------------------------------------------------||------------------------------------------------|
Bridge:|-----0--------0--------0----7----------||---1--1-----3--3-----1--1----8-7-7h8p7-||--0-0------0-0------0-0---\7-----------||-2------2s4------4s2-------------------||---------------------------------------||---------------------------------------|
|-----0--------0--------0-------||---1--1-----3--3-----1--1------||--0-0------0-0------0-0--------||-2------2s4------4s2------2s4--||-------------------------------||-------------------------------|
Last Chorus 1st Half:|-------------------------------------------||-7h8-8-----7h8-8------8p7-7-----8p7-7------||-------7-7-------7-7--------7-7-------8p7-7||-------------------------------------------||-------------------------------------------||-------------------------------------------|
Chorus 2nd Half|--------------------||-use pattern **-----|
Ends with Intro RIFF and w/Electric Guitar leads NOTE: \9 means general slide to fret position; 2s4 means slide from 2nd fret to 4th; 7h8 means at 7th fret hammer onto the 8th fret; 8p7 means after picking 8th fret release to 7th fret; I used fingers on this song, without picks; UG User: Dylan Tan
Tap to rate this tab
 
# A B C D E F G H I J K L M N O P Q R S T U V W X Y Z