Link Wray – Roughshod tab

here's what i got to this awesome song, chords included if you're more of a chord person.


          "ROUGHSHOD" by Link Wray & the Wraymen

A F#m|----------------------------------------||----------------------------------------||--2--2--2--2--2--2--2-------------------||--2--2--2--2--2--2--2--5--5--5--5--5--5-||--0--0--0--0--0--0--0--5--5--5--5--5--5-||-----------------------2--2--2--2--2--2-|
A F#m|----------------------------------------||----------------------------------------||--2--2--2--2--2--2--2-------------------||--2--2--2--2--2--2--2--5--5--5--5--5--5-||--0--0--0--0--0--0--0--5--5--5--5--5--5-||-----------------------2--2--2--2--2--2-|
A F#m E|----------------------------||----------------------------||--2--2--2--2--2-------------||--2--2--2--2--2--5-5--2~~~~-||--0--0--0--0--0--5-5--2~~~~-||-----------------2-2--0~~~~-|
A D A|--------------------------||--------------3-3---------||--2--2-2-2-2--2-2--2~~~~--||--2--2-2-2-2--0-0--2~~~~--||--0--0-0-0-0-------0~~~~--||--------------------------|
|-------------------------|---------------------------||-------------------------|---------------------------||-------------------------|---------------------------||-------------------------|---------------------------||--0~~~~~-4b--0-----------|--0~~~~~~-4b--0------------||-----------------2~~~~~~-|-----------------2~~~~~~~--|
|---------------------------||---------------------------||---------------------------||---------------------------||--0~~~~~~-4b--0------------||-----------------2~~~-0~~~-|
|--------------------------||--------------3-3---------||--2--2-2-2-2--2-2--2~~~~--||--2--2-2-2-2--0-0--2~~~~--||--0--0-0-0-0-------0~~~~--||--------------------------|
D A D|----------------------------------------------------------------------||---3~~~~~----------3~~~~~------------------------3~~~~------------3~~-||---2~~~~~----------2~~~~~--2~~~~----------2~~~~--2~~~~------------2~~-||---0~~~~~----------0~~~~~--2~~~~----------2~~~~--0~~~~------------0~~-||----------0--2b--0---------0~~~~----------0~~~~---------0--2b--0------||---------------------------------0--2b--0-----------------------------|
E|-------------------------||-------------------------||-------------------------||--2-2-2-2-2--------------||-------------------------||-------------2b-2b-0~~~~-|
|----------------------------------------||----------------------------------------||--2--2--2--2--2--2--2-------------------||--2--2--2--2--2--2--2--5--5--5--5--5--5-||--0--0--0--0--0--0--0--5--5--5--5--5--5-||-----------------------2--2--2--2--2--2-|
|----------------------------------------||----------------------------------------||--2--2--2--2--2--2--2-------------------||--2--2--2--2--2--2--2--5--5--5--5--5--5-||--0--0--0--0--0--0--0--5--5--5--5--5--5-||-----------------------2--2--2--2--2--2-|
|----------------------------||----------------------------||--2--2--2--2--2-------------||--2--2--2--2--2--5-5--2~~~~-||--0--0--0--0--0--5-5--2~~~~-||-----------------2-2--0~~~~-|
|--------------------------||--------------3-3---------||--2--2-2-2-2--2-2--2~~~~--||--2--2-2-2-2--0-0--2~~~~--||--0--0-0-0-0-------0~~~~--||--------------------------|
end is just |-A-A-D-D-|-A-A-D-D-|-A-A-D-D-A-| and there you go! hope you have as much fun rocking out to this song as i do! LINK WRAY WRULES! -Bert Toast
Please rate this tab:
x1.0