Linkin Park – Burning In The Skies tab ver. 5

BURNING IN THE SKIES
TUNING- 1/2 STEP DOWN



Intro/Verse|--------------------------------------------------------||--------------------------------------------------------||--------------------------------------------------------||--11--11---10--8--10-8----------------------------------||--------------------------------------------------------||--------------------------------------------------------|
|--------------------------------------------------------||--------------------------------------------------------||--------------------------------------------------------||--11--11---13-15--13-11---------------------------------||--------------------------------------------------------||--------------------------------------------------------|
|--------------------------------------------------------||--------------------------------------------------------||--------------------------------------------------------||--10--10------------------------------------------------||---------13-11-13-11------------------------------------||--------------------------------------------------------|
|-------------------------------------------------------||-------------------------------------------------------||-------------------------------------------------------||-------------------------------------------------------||--10-10--11---13-11-13---------------------------------||-------------------------------------------------------|
pre-chorus (when mike sings OOOOOOOOOOO play this)
|--------------------------------------------------------||--------------------------------------------------------||--------------------------------------------------------||--11(x16)-----------------------------------------------||--------------------------------------------------------||--------------------------------------------------------|
chorus
|--------------------------------------------------------||--------------------------------------------|-----------||-------------------------------------------*|-----------||--11(x16)-10(x16)-8(x8)--11(x8)--10(x16)---*|-----------||--------------------------------------------|-----------||--------------------------------------------|-----------|
solo |--------------------------------------------------------------------| |--------------------------------------------------------------------| |-15--15--15-15-15--10--10--10-10-10--13--13--13-13-13--12-12--8-8-8-| |-x---x---x--x--x---x---x---x--x--x---x---x---x--x--x---x--x---x-x-x-| |-13--13--13-13-13--8---8---8--8--8---11--11--11-11-11--10-10--6-6-6-| |--------------------------------------------------------------------|
|----------------------------------------| |----------------------------------------| |-10--10--10-10-10--13--13--13-13-13--15-| |--x---x---x--x--x--x---x---x--x--x---x--| |--8---8---8--8--8--11--11--11-11-11--13-| |----------------------------------------|
|-----------------------------------------| |-----------------------------------------| |-13--13--13-13-13--15--13-13-12-12-8-8-8-| |-x---x---x--x--x---x---x--x--x--x--x-x-x-| |-11--11--11-11-11--13--11-11-10-10-6-6-6-| |-----------------------------------------|
|------------------------------------------------------------------------| |------------------------------------------------------------------------| |--15-15-15--17--18--15-15-15--17--18--15-15-15--17--18--15-15-15--17--18| |--x---x--x--x---x---x--x--x---x---x---x--x--x---x---x---x--x--x---x---x-| |--13-13-13--15--14--13-13-13--15--16--13-13-13--15--16--13-13-13--15--14| |------------------------------------------------------------------------|
|-------------------------------------------------| |-------------------------------------------------| |-15-15-15-15-17-17-17-17-18-18-18-18-20-20-20-20-| |-x--x--x--x--x--x--x--x--x--x--x--x--x--x--x--x--| |-13-13-13-13-15-15-15-15-16-16-16-16-18-18-18-18-| |-------------------------------------------------|
|--------------------------------------------------------| |--------------------------------------------------------| |---21~~~~~~~~-------------------------------------------| |--------------------------------------------------------| |--------------------------------------------------------| |--------------------------------------------------------|
then repeat the chorus ENJOY FELLAS!! I HOPE IT IS 100% CORRECT!! LP RULES
Please rate this tab:
x1.0