Linkin Park – Lies Greed Misery tab

Watch my cover: http://www.youtube.com/watch?v=MIeYIA6yVx4


Drop D: D A D G B E


 SYNTH

 -Intro

 C# E *5
 A D  *4
 A C# *1
 E A  *5
 F# B *5


              Guitarra 1

1-----------------------------------| 2-----------------------------------| Mike's Verses 3-----------------------------------| 4-x-x-x-x-x-----------------x-x-x-x-| 5-x-x-x-x-x-----------------x-x-x-x-| 6-x-x-x-x-x-----------------x-x-x-x-|
1-----------------------------------| 2-----------------------------------| 3-----------------------------------| 4-x-x-x-x-x-----------------x-x-x-x-| 5-x-x-x-x-x-----------------x-x-x-x-| 6-x-x-x-x-x-----------------x-x-x-x-|
1------------------------------------------| 2------------------------------------------| 3------------------------------------------| First Chorus 4-7-7-7-7-7--7-7-7-7-7-4-4-4-4-4-5-5-5-5-5-| *2 5-7-7-7-7-7--7-7-7-7-7-4-4-4-4-4-5-5-5-5-5-| 6-7-7-7-7-7--7-7-7-7-7-4-4-4-4-4-5-5-5-5-5-|
1-----------------------------------| 2-----------------------------------| Mike's Verses 3-----------------------------------| 4-x-x-x-x-------------------x-x-x-x-| 5-x-x-x-x-------------------x-x-x-x-| 6-x-x-x-x-------------------x-x-x-x-|
1-----------------------------------| 2-----------------------------------| 3-----------------------------------| 4-x-x-x-x---------------------------| 5-x-x-x-x---------------------------| 6-x-x-x-x---------------------------|
1--------------------------------------------------| 2--------------------------------------------------| 3--------------------------------------------------| 4-x-x-x-x-7-7-7-7-7--7-7-7-7-7-4-4-4-4-4-5-5-5-5-5-| 5-x-x-x-x-7-7-7-7-7--7-7-7-7-7-4-4-4-4-4-5-5-5-5-5-| 6-x-x-x-x-7-7-7-7-7--7-7-7-7-7-4-4-4-4-4-5-5-5-5-5-|
1------------------------------------------| 2------------------------------------------| 3------------------------------------------| Second Chorus 4-7-7-7-7-7--7-7-7-7-7-4-4-4-4-4-5-5-5-5-5-| *3 5-7-7-7-7-7--7-7-7-7-7-4-4-4-4-4-5-5-5-5-5-| 6-7-7-7-7-7--7-7-7-7-7-4-4-4-4-4-5-5-5-5-5-|
1----------------------------| 2----------------------------| 3----------------------------| BREAK "you did it to yourself" 4----------------------------| *7 5-----------0----------------| 6-0-5-0-5-4---7-7-7-7-7-7----|
1----------------------------| 2----------------------------| 3----------------------------| 4----------------------------| 5-----------0----------------| 6-0-5-0-5-4------------------|
1------------------------------------| 2------------------------------------| 3------------------------------------| OUTRO 4-x-x-x-x-0-5-0-5-4-2-7-7-7-7-7-7----| 5-x-x-x-x-0-5-0-5-4-2-7-7-7-7-7-7----| 6-x-x-x-x-0-5-0-5-4-2-7-7-7-7-7-7----|
1-----------------------| 2-----------------------| 3-----------------------| 4-0-5-0-5-4-7-7-7-7-----| 5-0-5-0-5-4-7-7-7-7-----| 6-0-5-0-5-4-7-7-7-7-----|
1--------------------------| 2--------------------------| 3--------------------------| 4-0-5-0-5-4-2-7-7-7-7-7-7--| 5-0-5-0-5-4-2-7-7-7-7-7-7--| 6-0-5-0-5-4-2-7-7-7-7-7-7--|
1--------------------------| 2--------------------------| 3--------------------------| 4-0-5-0-5-4-7-7-7-7-7-7-7--| 5-0-5-0-5-4-7-7-7-7-7-7-7--| 6-0-5-0-5-4-7-7-7-7-7-7-7--|
1--------------------------| 2--------------------------| 3--------------------------| 4-0-5-0-5-4-2-7-7-7-7-7-7--| 5-0-5-0-5-4-2-7-7-7-7-7-7--| 6-0-5-0-5-4-2-7-7-7-7-7-7--|
1-----------------------| 2-----------------------| 3-----------------------| 4-0-5-0-5-4-7-7-7-7-----| 5-0-5-0-5-4-7-7-7-7-----| 6-0-5-0-5-4-7-7-7-7-----|
1--------------------------| 2--------------------------| 3--------------------------| 4-0-5-0-5-4-2-7-7-7-7-7-7--| 5-0-5-0-5-4-2-7-7-7-7-7-7--| 6-0-5-0-5-4-2-7-7-7-7-7-7--|
1--------------------------| 2--------------------------| 3--------------------------| 4-0-5-0-5-4-7--7--7-7-7-7--| 5-0-5-0-5-4-7--7--7-7-7-7--| 6-0-5-0-5-4-7--7--7-7-7-7--|
Guitarra 2
1-----------------------------------| 2-10---10---10---10---10---10-------| INTRO 3----9----9----9----9----9----9-----| 4-----------------------------------| 5-----------------------------------| 6-----------------------------------|
1-----------------------------------| 2-----------------------------------| Mike's Verses 3-----------------------------------| 4-x-x-x-x-x-----------------x-x-x-x-| 5-x-x-x-x-x-----------------x-x-x-x-| 6-x-x-x-x-x-----------------x-x-x-x-|
1-----------------------------------| 2-----------------------------------| 3-----------------------------------| 4-x-x-x-x-x-----------------x-x-x-x-| 5-x-x-x-x-x-----------------x-x-x-x-| 6-x-x-x-x-x-----------------x-x-x-x-|
1-----------------------------------| 2-----------------------------------| 3-----------------------------------| First Chorus 4-7-------------------------x-x-x-x-| *2 5-7-------------------------x-x-x-x-| 6-7-------------------------x-x-x-x-|
1------------| 2------------| Mike's Verses 3------------| *3 4-x-x-x-x----| 5-x-x-x-x----| 6-x-x-x-x----|
1-----------------------------------| 2-----------------------------------| 3-----------------------------------| Second Chorus 4-x-x-x-x-7-----------------x-x-x-x-| 5-x-x-x-x-7-----------------x-x-x-x-| 6-x-x-x-x-7-----------------x-x-x-x-|
1-----------------------------------| 2-----------------------------------| 3-----------------------------------| *3 4-7-------------------------x-x-x-x-| 5-7-------------------------x-x-x-x-| 6-7-------------------------x-x-x-x-|
1-----------------------------------| 2-10---10---10---10---10---10-------| BREAK "you did it to yourself" 3----9----9----9----9----9----9-----| *5 4-----------------------------------| 5-----------------------------------| 6-----------------------------------|
1------------------------------------| 2------------------------------------| 3------------------------------------| OUTRO 4-x-x-x-x-0-5-0-5-4-2-x-x-x-x-x-x-x--| 5-x-x-x-x-0-5-0-5-4-2-x-x-x-x-x-x-x--| 6-x-x-x-x-0-5-0-5-4-2-x-x-x-x-x-x-x--|
1-----------------------| 2-----------------------| 3-----------------------| 4-0-5-0-5-4-2-x-x-x-----| 5-0-5-0-5-4-2-x-x-x-----| 6-0-5-0-5-4-2-x-x-x-----|
1----------------------------| 2----------------------------| 3----------------------------| *3 4-0-5-0-5-4-2-x-x-x-x-x-x-x--| 5-0-5-0-5-4-2-x-x-x-x-x-x-x--| 6-0-5-0-5-4-2-x-x-x-x-x-x-x--|
1-----------------------| 2-----------------------| 3-----------------------| 4-0-5-0-5-4-2-x-x-x-----| 5-0-5-0-5-4-2-x-x-x-----| 6-0-5-0-5-4-2-x-x-x-----|
1----------------------------| 2----------------------------| 3----------------------------| 4-0-5-0-5-4-2-x-x-x-x-x-x-x--| 5-0-5-0-5-4-2-x-x-x-x-x-x-x--| 6-0-5-0-5-4-2-x-x-x-x-x-x-x--|
1--------------------------| 2--------------------------| 3--------------------------| 4-0-5-0-5-4-x--x--x-x-x-x--| 5-0-5-0-5-4-x--x--x-x-x-x--| 6-0-5-0-5-4-x--x--x-x-x-x--|
Please rate this tab:
x1.0