Live - Turn My Head tab

       turn my head tab by live



 0ne guitar                                             steve...:)

|------------0------|-------------3-0---||-----1--------1----|------1-0h1--------||----------------0--|-------------------||---2-----2---------|-------------------||-3-----3-----------|---2---------------||-------------------|-3-----------------|
|--------0----------|--------1----------||-----------0-------|-----------1-------||--------------0----|--------------0----||-----2-------------|-----3-------------||---2--------2------|---3---------------||-0-----------------|-1-----------------|
|--------------0-----|-------------3-0--||-----1----1h3---3p1-|------1-0h1-------||--------------------|------------------||---2----------------|------------------||-3-----3------------|---2--------------||--------------------|-3----------------|
|---------0----------|--------1---------||------------0-------|-----------1------||---------------0----|--------------0---||-----2--------------|-----3------------||---2----------------|---3--------------||-0------------------|-1----------------|
vocal + two guitar
|--------------------|--------------3-0-||----1-1-------------|-----3--1-0h1-----||---0---0-----0------|----0-------------||--2--------2--------|---0--------------||-3------3-----------|--2---------------||--------------------|-3----------------|
|------0-0-----------|------1--1--------||-----0---0----------|-----1------1-----||----0-----0---------|----2----------0--||---2--------2-------|---3--------------||--2----------2------|--3---------------||-0------------------|-1----------------|
|-----0-------0------|--------------3-0-||----1----1h3---3p1--|-----3--1-0h1-----||---0----------------|----0-------------||--2-----------------|---0--------------||-3-----3------------|--2---------------||--------------------|-3----------------|
|------0-0-----------|------1--1--------||-----0---0----------|-----1-----1------||----0-----0---------|----2--------0----||---2--------2-------|---3--------------||--2----------2------|--3---------------||-0------------------|-1----------------|
|--------------------|--------------3-0-||----1-1-------------|-----3--1-0h1-----||---0---0-----0------|----0-------------||--2--------2--------|---0--------------||-3------3-----------|--2---------------||--------------------|-3----------------|
|------0-0-----------|------1-----------||-----0---0----------|-----1------------||----0-----0---------|----2-------------||---2--------2-------|---3--------------||--2----------2------|--3---------------||-0------------------|-1----------------|
|------1------0---------0----0-----0----||-----1------1---------1----1-----0-----||----1------0---------0----0-----0------||---3------2---------2----2-----0-------||--3------3---------3----3-----2--------||-1-------------------------------------|
|-----0------------0----------3--------1-||----1------------1----------3--------1--||---2------------2----------0--------2---||--2------------2----------0--------3----||-0------------0----------2--------3-----||------------------------3--------1------|
|-----0-----0---------------||----1--------1--0h1--------||---0-----0-----------------||--2------------------------||-3-------------------------||---------------------------|
|--------------------|--------------3-0-||----1-1-------------|-----3--1-0h1-----||---0---0-----0------|----0-------------||--2--------2--------|---0--------------||-3------3-----------|--2---------------||--------------------|-3----------------|
|------0-0-----------|------1--1--------||-----0---0----------|-----1------1-----||----0-----0---------|----2----------0--||---2--------2-------|---3--------------||--2----------2------|--3---------------||-0------------------|-1----------------|
|-----0-------0------|--------------3-0-||----1----1h3---3p1--|-----3--1-0h1-----||---0----------------|----0-------------||--2-----------------|---0--------------||-3-----3------------|--2---------------||--------------------|-3----------------|
|------0-0-----------|------1--1--------||-----0---0----------|-----1-----1------||----0-----0---------|----2---------0---||---2--------2-------|---3--------------||--2----------2------|--3---------------||-0------------------|-1----------------|
|--------------------|--------------3-0-||----1-1-------------|-----3--1-0h1-----||---0---0-----0------|----0-------------||--2--------2--------|---0--------------||-3------3-----------|--2---------------||--------------------|-3----------------|
|------0-0-----------|------1-----------||-----0---0----------|-----1------------||----0-----0---------|----2-------------||---2--------2-------|---3--------------||--2----------2------|--3---------------||-0------------------|-1----------------|
|------1------0---------0----0-----0----||-----1------1---------1----1-----0-----||----1------0---------0----0-----0------||---3------2---------2----2-----0-------||--3------3---------3----3-----2--------||-1-------------------------------------|
|-----0------------0----------3--------1-||----1------------1----------3--------1--||---2------------2----------0--------2---||--2------------2----------0--------3----||-0------------0----------2--------3-----||------------------------3--------1------|
|------------0---------0----0-----0----||-----------1---------1----1-----0-----||----------0---------0----0-----0------||---------2---------2----2-----0-------||--------3---------3----3-----2--------||--------------------------------------|
|-----0------------0----------3--------1-----1-||----1------------1----------3--------1-----1--||---2------------2----------0--------2-----2---||--2------------2----------0--------3-----3----||-0------------0----------2--------3-----3-----||------------------------3--------1-----1------|
part 2
|------0-----------1-||-----0-----------1--||----1-----------2---| x 3|---2-----------3----||--2-----------3-----||-0-----------1------|
|-----3-----3-----||----3--------3---||---0----0------0-||--0--------------||-2---------------||3----------------|
solo steve,,,,,,,, pompom@sympatico.ca pompom020366@hotmail.com
Tap to rate this tab
 
# A B C D E F G H I J K L M N O P Q R S T U V W X Y Z