Lock Up - Dont Wanna Talk About It tab

Artist: Lock Up
Album: Something Bitchin' This Way Comes
Song: Don't Wanna Talk About It
Tuning: Standard (EADGBE)
Tabbed By: Psycho Munky


Intro|-------------------------------|-------------------------------||-------------------------------|-------------------------------||-------------------------5---5-|-------------------------5-----||-7-----7-----7-----7-----3---3-|-7-----7-----7-----7-----3-----||-5-5-5-5-5-5-5-5-5-5-5-5-------|-5-5-5-5-5-5-5-5-5-5-5-5-----5-||-------------------------------|-----------------------------3-|
|-------------------------------|-------------------------------||-------------------------------|-------------------------------||----------------------------5h7|-------------------------------||-7-----7-----7-----7-----5h7---|-7-----7-----7-----7-----5---5-||-5-5-5-5-5-5-5-5-5-5-5-5-------|-5-5-5-5-5-5-5-5-5-5-5-5-3---3-||-------------------------------|-------------------------------|
Verse 1 Part 1|-------------------------------|-------------------------------||-------------------------------|-------------------------------||-------------------------5---5-|-------------------------5-----||-7-----7-----7-----7-----3---3-|-7-----7-----7-----7-----3-----||-5-5-5-5-5-5-5-5-5-5-5-5-------|-5-5-5-5-5-5-5-5-5-5-5-5-----5-||-------------------------------|-----------------------------3-|
|-------------------------------|-------------------------------||-------------------------------|-------------------------------||----------------------------5h7|-------------------------5-----||-7-----7-----7-----7-----5h7---|-7-----7-----7-----7-----3---5-||-5-5-5-5-5-5-5-5-5-5-5-5-------|-5-5-5-5-5-5-5-5-5-5-5-5-----3-||-------------------------------|-------------------------------|
|-------------------------------|-------------------------------||-------------------------------|-------------------------------||-------------------------5---5-|-------------------------5/----||-7-----7-----7-----7-----7---7-|-7-----7-----7-----7-----7/--5-||-8-8-8-8-8-8-8-8-8-8-8-8-------|-8-8-8-8-8-8-8-8-8-8-8-8-----3-||-------------------------------|-------------------------------|
|-------------------------------|-------------------------------||-------------------------------|-------------------------------||-------------------------5---5-|-------------------------5-----||-7-----7-----7-----7-----3---3-|-7-----7-----7-----7-----3-----||-5-5-5-5-5-5-5-5-5-5-5-5-------|-5-5-5-5-5-5-5-5-5-5-5-5-----5-||-------------------------------|-----------------------------3-|
Verse 1 Part 2|-----------------------------------------||-----------------------------------------||-7-----5/7--7---10---7---7-x-x-7/5-5/4-5-||-x-----x/x--x----x---x---x-x-x-x/x-x/x-x-||-5-----3/5--5----8---5---5-x-x-5/3-3/2-3-||-----------------------------------------|
|----------------------------------------------------||----------------------------------------------------||-7-----5/7--7---10---7---7-x-x-7/9-9/10-10/12-12/14-||-x-----x/x--x----x---x---x-x-x-x/x-x/-x--x/-x--x/-x-||-5-----3/5--5----8---5---5-x-x-5/7-7/-8--8/10-10/12-||----------------------------------------------------|
|--------------------------------------------------||--------------------------------------------------||-10----5/7--10-10-x-x-5/7-10--5/7-10--5/7-7-9-10^-||--x----x/x---x--x-x-x-x/x--x--x/x--x-----------x--||--8----3/5---8--8-x-x-3/7--8--3/7--8-----------8^-||--------------------------------------------------|
|-------------------------------------------||-------------------------------------------||-7-----5/7--7---10---7---7-x-x-7/9/7-5/7/5-||-x-----x/x--x----x---x---x-x-x-x/x/x-x/x/x-||-5-----3/5--5----8---5---5-x-x-5/7/5-3/5/3-||-------------------------------------------|
Chorus 1|--------------| |-----------------------------------||--------------| |-----------------------------------||-3-----15--15-|X2|-5-----17--17-----5-----------(19)-||-3------x---x-| |-5------x---x-----5-----------(-x)-||-1-----13--13-| |-3-----15--15-----3-----3--4--(17)-||--------------| |-----------------------------------|
Pre Verse|-------------------------------|-------------------------------||-------------------------------|-------------------------------||-------------------------5---5-|-------------------------------||-7-----7-----7-----7-----3---3-|-7-----7-----7-----7-----5---5-||-5-5-5-5-5-5-5-5-5-5-5-5-------|-5-5-5-5-5-5-5-5-5-5-5-5-3---3-||-------------------------------|-------------------------------|
Verse 2|-----------------------------------------||-----------------------------------------||-7-----5/7--7---10---7---7-x-x-7/5-5/4-5-||-x-----x/x--x----x---x---x-x-x-x/x-x/x-x-||-5-----3/5--5----8---5---5-x-x-5/3-3/2-3-||-----------------------------------------|
|----------------------------------------------------||----------------------------------------------------||-7-----5/7--7---10---7---7-x-x-7/9-9/10-10/12-12/14-||-x-----x/x--x----x---x---x-x-x-x/x-x/-x--x/-x--x/-x-||-5-----3/5--5----8---5---5-x-x-5/7-7/-8--8/10-10/12-||----------------------------------------------------|
|-----------------------------------------------------||-----------------------------------------------------||-10----5/7--10-10-x-x-5/7-10--5/7-10--5/7-10--5/7-10-||--x----x/x---x--x-x-x-x/x--x--x/x--x--x/x--x--x/x--x-||--8----3/5---8--8-x-x-3/7--8--3/7--8--3/7--8--3/7--8-||-----------------------------------------------------|
|-------------------------------------------||-------------------------------------------||-7-----5/7--7---10---7---7-x-x-7/9/7-5/7/5-||-x-----x/x--x----x---x---x-x-x-x/x/x-x/x/x-||-5-----3/5--5----8---5---5-x-x-5/7/5-3/5/3-||-------------------------------------------|
Chorus 2|--------------| |-----------------------------------||--------------| |-----------------------------------||-3-----15--15-|X2|-5-----17--17-----5-----------(19)-||-3------x---x-| |-5------x---x-----5-----------(-x)-||-1-----13--13-| |-3-----15--15-----3-----3--4--(17)-||--------------| |-----------------------------------|
Pre Solo|-------------------------------|-------------------------------||-------------------------------|-------------------------------||-------------------------5---5-|-------------------------5-----||-7-----7-----7-----7-----3---3-|-7-----7-----7-----7-----3-----||-5-5-5-5-5-5-5-5-5-5-5-5-------|-5-5-5-5-5-5-5-5-5-5-5-5-----5-||-------------------------------|-----------------------------3-|
|-------------------------------|-------------------------------||-------------------------------|-------------------------------||----------------------------5h7|-------------------------5~~---||-7-----7-----7-----7-----5h7---|-7-----7-----7-----7-----5~~---||-5-5-5-5-5-5-5-5-5-5-5-5-------|-5-5-5-5-5-5-5-5-5-5-5-5-3~~---||-------------------------------|-------------------------------|
Solo (Guitar 1) (Guitar 2 Plays Verse 1 And Then Chorus 1)|-12-12-12---------------13-13-13-------------||----------13-13-13---------------15-15-15----||-------------------12~--------------------14~||---------------------------------------------||---------------------------------------------||---------------------------------------------|
|--15-15-15-------------------15-15-15----------20-20-20-17-||-----------17-17-17-------------------17-17-17-------------||--------------------17-17-17-------------------------------||-----------------------------------------------------------||-----------------------------------------------------------||-----------------------------------------------------------|
|-------------------------------------------------------||-------------------------------------------------------||-/12^^^^^^12--10-10----10-10----10-10--12^-12-10----10-||--------------------12-------12------------------12----||-------------------------------------------------------||-------------------------------------------------------|
|------------------------------------------------------||------------------------------------------------10----||---10--10-10------12-15--(pb)15(r)-14p12p10--10----10-||--------------12--------------------------------------||------------------------------------------------------||------------------------------------------------------|
|-22-18-20-17-18-15-17-13-15-12-13-10-12-8-10-6-||-----------------------------------------------||-----------------------------------------------||-----------------------------------------------||-----------------------------------------------||-----------------------------------------------|
|-22-18-20-17-18-15-17-13-22-20-18-17-15-13-12----20/0-||----------------------------------------------13------||------------------------------------------------------||------------------------------------------------------||------------------------------------------------------||------------------------------------------------------|
Outro|*----------------------------------------------*||------------------------------------------------||-7---5-7-7----7---5-7--5----------------------5-||-7---5-7-7----7---5-7--5--8---8-8-8----8---8--5-||-5---3-5-5----5---3-5--3--8---8-8-8----8---8--3-||*-------------------------6---6-6-6----6---6---*|Repeat Til End
Can't Do Outro Solo http://en.wikipedia.org/wiki/Lock_Up_(American_band) http://www.youtube.com/watch?v=D_xFlpARajY
Tap to rate this tab
 
# A B C D E F G H I J K L M N O P Q R S T U V W X Y Z