Los Lonely Boys - Hollwood tab

                                 Hollywood
                              Los Lonely Boys
                   Written by all three members of the band.

h=hammer on
p=pull off
/=slide up
\=slide down
b=bend


intro:|-8--8---10--10--10-10-10-10p8---8--8---10--10--10-10-10-10p8-||-8--8---8---8---8--8--8--8------8--8---8---8---8--8--8--8----|
|-8--8---8---8---8--8--8--8------8--8---8---8---8--8--8--8----||-------------------------------------------------------------||-------------------------------------------------------------||-------------------------------------------------------------|
|-6--6---6---6--6-6-6----6--6---6---6--6-6-6---||-3--3---3h4-4--4-4-4p3--3--3---3h4-4--4-4-4p3-||-3--3---3---3--3-3-3----3--3---3---3--3-3-3---||----------------------------------------------||----------------------------------------------||----------------------------------------------|
intro solo:|----------------------------------------------------------3-6-8p6-||----------------------3-4p3--------------3-4p3--------3-6---------||-----3h5--3h5p3---3-5--------3-3-----3-5-------5--3-5-------------||-3h5------------5----------------5--------------------------------||------------------------------------------------------------------||------------------------------------------------------------------|
|-11p10p8---------8-10-11-13-11-10-8---------------------------||----------11-11---------------------11-11-8------6---6--6---6-||--------------------------------------------10---7h8-7--7h8-7-||--------------------------------------------------------------||--------------------------------------------------------------||--------------------------------------------------------------|
Chords: A#:6 or A#:1 D#:6 D#m:6 Cm:3 F:1 Dm:5 G:3 6 3 8 7 4 1 6 3 7 3 8 8 5 2 7 0 8 3 8 8 5 3 7 0 8 1 6 6 3 3 5 2 6 x x x x 1 x 3 A# I'm calling up my Cheri, Tell her that I'm gonna leave D# D#m A# Cause I'm movin' on, to Hollywood you see A# It's always been a life long dream For my family D# D#m A# To see me On that silver screen C# F And I know I can't go wrong.... Cm F Cause I finally found my song Cm F A# I'm headin' where I belong...Hollywood I know there's something in store for me (But) nothing like the tragedies That have seen me through In real life you see Next time that you see me I'll be done with misery I'll be shinnin' bright For all the world to see And I know I can't go wrong.... I'm headin' where I belong..Hollywood
Solo:|----------------------||----------------------||-----3h5--3h5p3---3h5-||-3h5------------5-----||----------------------||----------------------|
|------11----10---8---------11-/10-/8-6----------6-----6-------6---||------------------------------------------3h4-4---4-4---4-3-----4-||-8/10----10----8------8/10----/10-/8-7----------------------------||------------------------------------------------------------------||------------------------------------------------------------------||------------------------------------------------------------------|
|----------------------||----------------------||-----3h5--3h5p3---3h5-||-3h5------------5-----||----------------------||----------------------|
|------11----10---8---------11-/10-/8-6----------6-----6-------6---||------------------------------------------3h4-4---4-4---4-3-----4-||-8/10----10----8------8/10----/10-/8-7----------------------------||------------------------------------------------------------------||------------------------------------------------------------------||------------------------------------------------------------------|
|----8-10-8-------||-11--------11-10-||-----------------||-----------------||-----------------||-----------------|
Dm G Cm F D# Dm Cm I know that something's there for me...I'm flying free That's why I'm calling up my Cheri Tell her that I'm gonna leave Cause dreams are free In Hollywood you see And I know I can't go wrong....cause I finally found my song... I'm headin' where I belong... Hollywood...Hollywood And I know I can't go wrong ... I'm headin' where I belong...Hollywood
Outro Solo:|------------------------------------------------------------------------||------------------------------------------------------------------------||-----3h5--3h5p3---3-5-5-3-5------3-5-5-3-5------3-5-5-3-5-----3-5-5-3-5-||-3h5------------5------------3h5------------3h5-----------3h5-----------||------------------------------------------------------------------------||------------------------------------------------------------------------|
|---------------------------------------------------------||---------------------------------------------------------||-----0-3-3-0-3-----0-3-3-0-3-----0-3-3-0-3-----0-3-3-0-3-||-0h3-----------0h3-----------0h3-----------0h3-----------||---------------------------------------------------------||---------------------------------------------------------|
|-----------------------------------------------------------||-----------------------------------------------------------||-----3-5-5-3-5------3-5-5-3-5------3-5-5-3-5-----3-5-5-3-5-||-3h5------------3h5------------3h5-----------3h5-----------||-----------------------------------------------------------||-----------------------------------------------------------|
|---------------||---------------||-----0-3-3-0-3-||-0h3-----------||---------------||---------------|
|---------3-6-------8-10-11--10h11p10p8-------------10-11--11h13p11p10------||-3-6---6--------11---------------------11-8--11-13--------------------11-8-||---------------------------------------------------------------------------||---------------------------------------------------------------------------||---------------------------------------------------------------------------||---------------------------------------------------------------------------|
|------8-10-11p10p8---------8-10-11p10p8---------8-10-11p10p8------||-8-11--------------11-8-11--------------11-8-11--------------11-8-||------------------------------------------------------------------||------------------------------------------------------------------||------------------------------------------------------------------||------------------------------------------------------------------|
|-------10-13-11-10-------------------||-11-13-------------13-13b15-13b15-11-||-------------------------------------||-------------------------------------||-------------------------------------||-------------------------------------|
Tap to rate this tab
 
# A B C D E F G H I J K L M N O P Q R S T U V W X Y Z