Los Straitjackets - Outta Gear tab

                       LOS STRAITJACKETS
                         OUTTA GEAR

STANDARD TUNING
EADGBe

-8-8-8-5---------------|-7-7-7-5---------------|---------7-5-----------|-------------7--7--7-7-|-------------0--0--0-0-|-----------------------|
-8-8-8-5---------------|-7-7-7-5---------------|---------7-5-----------|-------------7--7--7-7-|-------------0--0--0-0-|-----------------------|
------------------------------|------------------------------|------------------------------|-7/9-9-9-9-9-9--5/7-7-7-7-7-7-|-5/7-7-7-7-7-7--3/5-5-5-5-5-5-|------------------------------|
------------------------------|------------------------------|------------------------------|-7/9-9-9-9-9-9--5/7-7-7-7-7-7-|-5/7-7-7-7-7-7--3/5-5-5-5-5-5-|------------------------------|
-8-8-8-5---------------|-7-7-7-5---------------|---------7-5-----------|-------------7--7--7-7-|-------------0--0--0-0-|-----------------------|
--------------------------------|--------------------------------|--------------------------------|-2-2--2-2--2-2-4-2-4b-4-2-2-4-2-|-0-0--3-3--0-0-0-0-0--0-0-0-0-0-|--------------------------------|
--------------------------------|--------------------------------|--------------------------------|-2-2--2-2--2-2-4-2-4b-4-2-2-4-2-|-0-0--3-3--0-0-0-0-0--0-0-0-0-0-|--------------------------------|
--------------------------------|--------------------------------|-2-2--2-2--2-2-4-2-4b-4-2-2-4-2-|-0-0--3-3--0-0-0-0-0--0-0-0-0-0-|--------------------------------|--------------------------------|
--------------------------------|--------------------------------|-2-2--2-2--2-2-4-2-4b-4-2-2-4-2-|-0-0--3-3--0-0-0-0-0--0-0-0-0-0-|--------------------------------|--------------------------------|
--------------------------------|--------------------------------|--------------------------------|-2-2--2-2--2-2-4-2-4b-4-2-2-4-2-|-0-0--3-3--0-0-0-0-0--0-0-0-0-0-|--------------------------------|
------------------------------|------------------------------|------------------------------|-7/9-9-9-9-9-9--5/7-7-7-7-7-7-|-5/7-7-7-7-7-7--3/5-5-5-5-5-5-|------------------------------|
----------------------------------|----------------------------------|----------------------------------|-2-2--2-2--2-2-4-2-4b-4-2-2-4-2-2-|-0-0--3-3--0-0-0-0-0--0-0-0-0-0-0-|----------------------------------|
---5--5--5--5--5--5--5------------------------------------------------|-----------------------------------5-7-5------------------------------|-7b-7b-7b-7b-7b-7b-7b-7b-7-5-------5-7-5---5-7-7b-7b-7-7p5---5---5----|-----------------------------7-5-7-------7-----------------7---7---7--|----------------------------------------------------------------------|----------------------------------------------------------------------|
------5-8-5-----------------------5-5-5-5-8-5--8-5-8-5-8-5------------|----5-------8-5-------5-7-5-------5-5-5-5-5-5--5-5-5-5-5-5--7-5-------|--7-------------7-5---5-7-5---------------------------------7-5-------|--------------------7-------7-5---------------------------------7-7---|--------------------------------7-------------------------------------|----------------------------------------------------------------------|
--------------------------------------------------5----5-------------------|--5-5---------------------------------------------5----5-------------------|------8-7-5----------5-7b-7b-7-7p5---5---5---5-7b---7b---7p5-----7-5-------|------------7-5--5-7---------------7---7---7-----------------7p5-----7-5---|----------------7--------------------------------------------------------7-|---------------------------------------------------------------------------|
thats it peace
Tap to rate this tab
 
# A B C D E F G H I J K L M N O P Q R S T U V W X Y Z