Love Lies In Ashes - Bleeding Kansas tab

Artist = Love Lies in Ashes
Title = Bleeding Kansas
Album = A Beautiful death
Track # 8
Tabbed by JT (JesuSoarusRex)
\m/(>.<)\m/
KEY
 ~ = Bend
 h = Hammer on
 p = Pull off
 / = Slide
 * = Palm mute
Tuning is drop d
----------------------------------------------------------------------------

Intro|--------------------------------------| |---||--------------------------------------| |---||-----0--------0--------0------0----0--| |---||--4-4-4-4--7-7-7-7--4-4-4-4--4-4--4-4-|2x|-2-||-2-2---2--5-5---5--7-7---7--5----4----| |-2-||--------------------------------------| |-2-|
|------------------------------------------||------------------------------------------||------------------------------------------||-444------4-444------4-444------4-444-222-| 2x|-222-2222-2-222-2222-2-222-2222-2-222-222-||------------------------------------------|
**** **** **** Why dont you go....|----------------------------------||----------------------------------||-7-77-777-777-67---666-666-666-67-||-5-55-555-555-55-5-777-777-777-55-||-5-55-555-555-55-5-555-555-555-55-||-5-55-555-555-55-5-555-555-555-55-|
* You wander every night....|---------------------------------||---------------------------------||---------------------------------||-444-444-444---0-----------------| 4x|-222-222-222-24--555-570-222-202-||-----------------555-----222-----| **
And since this war is over........|-----------------------------------------||-----------------------------------------||-----------------------------------------||-------------------0-7-7-7-77-7-77-7-----||-2-2-2-22-2-22-2-24--5-5-5-55-5-55-5-570-||-2-2-2-22-2-22-2-----5-5-5-55-5-55-5-----|
* ** ** * ** ** 2x|-----------------------------------------||-----------------------------------------||-----------------------------------------||-------------------0-2-2-2-22-2-22-2-----||-0-0-0-00-0-00-0-02--0-0-0-00-0-00-0-020-||-0-0-0-00-0-00-0-------------------------| * ** ** * ** ** ----
Fast part|-----------------------------||-----------------------------||-----------------------------||-----------4-5----------454--| 2x|---7--7--7------7--7--7----5-||-00-00-00-0-0--0-00-00-0-----|
** ** ** * * * ** ** *|-----------------------------||-----------------------------||-----------6-7----------676--||---9--9--9------9--9--9----7-| 2x|-----------------------------||-00-00-00-0-0--0-00-00-0-----|
** ** ** * * * ** ** *|-----------------------------||-----------------------------||-----------6-7----------676--||---7--7--7------7--7--7----7-| 2x|-----------------------------||-00-00-00-0-0--0-00-00-0-----| ** ** ** * * * ** ** *
|-----------------------------||-----------------------------||-----------------------------||-4444-4444-----4444-4444-----| 2x|-2222-2222-000-2222-2222-000-||-----------000-----------000-| **
|----------------------------------||----------------------------------||-7-77-777-777-67---666-666-666-67-||-5-55-555-555-55-5-777-777-777-55-||-5-55-555-555-55-5-555-555-555-55-||-5-55-555-555-55-5-555-555-555-55-|
* I wish that I could take you....|---------------------------------||---------------------------------||---------------------------------||-444-444-444---0-----------------| 4x|-222-222-222-24--555-570-222-202-||-----------------555-----222-----| **
Why did you walk down this........|-----------------------------------------||-----------------------------------------||-----------------------------------------||-------------------0-7-7-7-77-7-77-7-----||-2-2-2-22-2-22-2-24--5-5-5-55-5-55-5-570-||-2-2-2-22-2-22-2-----5-5-5-55-5-55-5-----|
* ** ** * ** ** 2x|-----------------------------------------||-----------------------------------------||-----------------------------------------||-------------------0-2-2-2-22-2-22-2-----||-0-0-0-00-0-00-0-02--0-0-0-00-0-00-0-020-||-0-0-0-00-0-00-0-------------------------| * ** ** * ** ** ----
|--------------||--------------||--------------||-4-47-74-74-4-||-2-25-57-55-4-||--------------|
Your walking down this empty road.....|--------------------------------------| |--------------------------------------| |-----0--------0--------0------0----0--| |--4-4-4-4--7-7-7-7--4-4-4-4--4-4--4-4-|2x|-2-2---2--5-5---5--7-7---7--5----4----| |--------------------------------------|
Im screaming toward the sky....|-----------------------------||-----------------------------||-----------------------------||-4444-4444-----4444-4444-----| 2x|-2222-2222-000-2222-2222-000-||-----------000-----------000-| **
---------------------------------------------------------------------------- Check out Love Lies in Ashes at.. www.myspace.com/loveliesinashes or www.dekarecords.com and many of the online music stores!!!
Tap to rate this tab
 
# A B C D E F G H I J K L M N O P Q R S T U V W X Y Z